#1
so I am writing a song and need help with what chords for chorus would go with these... any help is appreciated

----------------------
--1-------------------
----------------------
----------------------
----------3-----------
----------------------

----------------------
--1-------------------
----------------------
----------------------
----------2-----------
----------------------

----------------------
--1-------------------
----------------------
--------2-------------
---------------------
----------------------

----------------------
---------------------
----------------------
----------------------
-----2----------------
---------3-------------

I have a picking pattern for these chords as an intro/verse, but am looking to switch it up with some barre chords for the chorus. Any help would really be nice!