#1
I have made a tab for a Legend of Zelda song that is 100% correct, ear transcribed, and it keeps getting rejected. There is only one other tab version on the site, and it isn't even for the same song (it is for the Lost Woods) yet somehow THAT was accepted? Below is the tab. Can someone tell me where my error is? I spent a lot of time getting this correct and it's pissing me off knowing that whoever is reviewing it thinks it's wrong...

P.S. On the actual tab I gave a little intro to the song and a tab legend, but I didn't want to crowed this post up with it; the ends are only uneven because of the font on these forums, it's even on the actual tab.

e|----------------------------|-------------------------------------------|
B|-15--13--15-16-18~---|-------------------------------------------|
G|-12--10--12-11-13~---|-------------------------------------------|
D|-12--10--12-11-13~---|---5-------3---------5-------3-------------|
A|----------------------------|-3---3-3----------3----3-3----------3------|
E|----------------------------|---------6---6-6-----------6---6-6---------|
| *This section repeats throughout* |

e|----20-----------------------------------------------------------|
B|-20----20-17----17-18-20h22p20-18h20p18-17----17-----------------|
G|-------------19----------------------------19----17--------------|
D|-----------------------------------------------------------------|
A|-----------------------------------------------------------------|
E|-----------------------------------------------------------------|

e|-----------------------------------------------------------------|
B|----------15-13~---------13--------------------------------------|
G|-15----15--------12~--12----12-------------12h14p12-10h12p10-9---|
D|----15-------------------------14-12-14-15-----------------------|
A|-----------------------------------------------------------------|
E|-----------------------------------------------------------------|

e|--------------------------------------------------12-10h12p10-------|
B|--------------------15-13~-----13----12-15-----13-------------12-|
G|----9------15----15---------14----14--------14----------------------|
D|-12---10~-----15------------------------------------------------------|
A|---------------------------------------------------------------------------|
E|---------------------------------------------------------------------------|
| *This is the classical section...

e|--------------------------13h15p13-------------------------------|
B|----13----12-15--13-15-16----------15-----13----12-15-----13-----|
G|-14----14------------------------------14----14--------14----14--|
D|-----------------------------------------------------------------|
A|-----------------------------------------------------------------|
E|-----------------------------------------------------------------|


e|-----------------13h15p13------------15h17p15-13h15p13-12h13p12--|
B|-12-15--13-15-16----------15-17~---------------------------------|
G|-----------------------------------------------------------------|
D|-----------------------------------------------------------------|
A|-----------------------------------------------------------------|
E|-----------------------------------------------------------------|
...end classical* |

e|-----------------------------------------------------------------|
B|-15-13----13-15-13-----15~~13~-13h15p13-11h13p11-10h11p10--------|
G|-------15----------12~~12~~12~-----------------------------12-10-|
D|-----------------------------------------------------------------|
A|-----------------------------------------------------------------|
E|-----------------------------------------------------------------|


e|-----------------------------------------------------------------|
B|-----------------------------------------------------------------|
G|-9-10-12-9~-------------------------------------------------|
D|-----------------------------------------------------------------|
A|-----------------------------------------------------------------|
E|-----------------------------------------------------------------|