#1
e---------------------------------------------------
B--------------------------------9--11~----------
G--------------------8--8/10---------------------
D--------6---8/10-------------------------------
A--6/8--------------------------------------------
E--------------------------------------------------

e--------8--9--11--9-8-------9------------------------
B---11--------------------11-------9/11---9~--------
G----------------------------------------------------------
D----------------------------------------------------------
A----------------------------------------------------------
E----------------------------------------------------------

e----------------------------------------------------------
B---11^-9--11-9--------9----------------------------
G---------------------10-----8~--------------------------------
D----------------------------------------------------------
A----------------------------------------------------------
E----------------------------------------------------------

This is what my guitar teacher has written me out, but I'm struggling with the last bit. Mainly the last 3 notes. How do I play these?
Last edited by sFX I Libertine at May 21, 2010,
#2
I find this to be accurate. On the really fast part you gotta play both down and up with the pick . its tricky, but really feels good when you get it right