#1
So I feel like this resolves to C major. However the F major turns into (what is the term for this) F minor which I believe is just an accidental. The same accidental as in the Db5?

||------------------|-----------------|
||o-----------------|-----------------|
||------0---3-----0-|-----0---3-----0-|
||----2---2---2-----|-2-----2---2-----|
||o-3-----------3---|---3---------3---|
||------------------|-----------------|

|-------------------|--------------------||
|-------------------|-------------------o||
|--2-----2-----1----|---1-----1----------||
|----3-----3------3-|-----3-----3--------||
|------3-----3------|-3-----3-----3-0---o||
|-------------------|--------------------||

|--------------------------------------------------------------------|
|--------------------------------------------------------------------|
|-0-----0-----1-----1-----1-----0-2-----2-----3-----3-----3-----3----|
|---2-----2-----0-----0-----0-------2-----2-----2-----2-----2--------|
|-----0-----0-----0-----0-----0-------0-----0-----3-----3-----3------|
|--------------------------------------------------------------------|
#3
Is this something that you wrote? Aside from the chromatic movement, I would say that the chord "progression" sounds a bit random. If it was changed to

||------------------|-----------------|
||o-----------------|-----------------|
||------0---3-----0-|-----0---3-----0-|
||----2---2---2-----|-2-----2---2-----|
||o-3-----------3---|---3---------3---|
||------------------|-----------------|

|-------------------|--------------------||
|-------------------|-------------------o||
|--2-----2-----1----|---1-----1----------||
|----3-----3------3-|-----3-----3--------||
|------3-----3------|-3-----3-----3-0---o||
|-------------------|--------------------||

|-------------------------------------------------------------------|
|-------------------------------------------------------------------|
|-0-----0-----1-----1-----2-----2-----3-------3---2-----1---0-------|
|---3-----3-----3-----3-----0-----0-----5---4-------3-----3---2-----|
|-----1-----1-----2-----2-----2-----2-----3-----3-----3---------3---|
|-----------------------------------------------------------------3-|


The main difference is that the "roots" of the chords are moving by 4ths and 5ths while keeping the same chromaticism as the original.
#4
Thanks for the input. For my purposes I would prefer going to the Am7 than that Bb, but it was a bit hard to grasp so here is a new version.

The Fm feels resolvey?

    E E E E E E E E   E E E E E E E E   E E E E E E E E   E E E E E E E E
||------------------|-----------------|-----------------|-----------------|
||o-----------------|-----------------|-----------------|-----------------|
||------0---3-----0-|-----0---3-----0-|-2-----2-----1---|---1-----1-------|
||----2---2---2-----|-2-----2---2-----|---3-----3-----3-|-----3-----3-----|
||o-3-----------3---|---3---------3---|-----3-----3-----|-3-----3-----3-0-|
||------------------|-----------------|-----------------|-----------------|

  E E E E E E E E   E E E E E E E E   E E E E E E E E   E E E E E E E E
|-----------------|-----------------|-----------------|-----------------|
|-----------------|-----------------|-----------------|-----------------|
|-----0---3-----0-|-----0---3-----0-|-2-----2-----2---|-1-----1-----1---|
|---2---2---2-----|-2-----2---2-----|---3-----3-----3-|---3-----3-----3-|
|-3-----------3---|---3---------3---|-----3-----3-----|-----3-----3-----|
|-----------------|-----------------|-----------------|-----------------|

  E E E E E E E E   E E E E E E E E   E E E E E e E E   E E E E E E E E
|-----------------|-----------------|-----------------|-----------------|
|-----------------|-----------------|-----------------|-----------------|
|-0-----0-----0---|-1-----1-----1---|-2-----2-----2---|-3-----3-----3---|
|---2-----2-----2-|---0-----0-----0-|---2-----2-----2-|---2-----2-----2-|
|-----0-----0-----|-----3-----3-----|-----0-----0-----|-----3-----3-----|
|-----------------|-----------------|-----------------|-----------------|

  W          W
|----------|-------||
|----------|------o||
|-2--------|-1-----||
|-3--------|-3-----||
|-3--------|-3----o||
|----------|-------||
#5
Speaking of Fm, is THIS in Fm with some accidentals in the last chord?

Or is it in Cm and the last chord is borrowing from the parallel major chord?


|-----|
|1-1-0|
|1-0-0|
|3-1-0|
|-----|
|-----|


The notes are F, Ab, C (Fm) Eb, G, C (maybe Cm/Eb or Eb6) and D, G, B (G/D?)