#1
Wrote out a tab for All I Want by LCD Soundsystem
It was denied
Here it is anyway, if someone could tell me why it was denied that would be great.


LCD Soundsystem's 'All I Want' from the 2010's This Is Happening.

Fairly easy. Four Basic Parts. Listen to song for timing.

\ = Slide Down
/ = Slide Up
^ = Bend
~ = Let Note Ring

1.
D------------------------------------------------------------
A-----------------/2------14~~~~^16--------14~~~~-
D----\15----------------------------------------------------

2.
D-----------------------------------------------------------------
A-----------------/2------14~~~~^16--------14-14~~~~-
D----\15---------------------------------------------------------

3.
D-------------------------16-14---------------------------------
A----^16------14-14------------^16--^16--14-14~~~~--
D------------------------------------------------------------------

4.
D----------------------------
A----^16------14~~~~~
D----------------------------

Verses go 1,2,1,2,3

Part 4 shows up in throughout the songs in the choruses and at the end.

That should be it, email questions and corrections to nick.acosta1@gmail.com and enjoy
#2
maybe its because your missing some of the string that arent used, not that its that bad, just looks more sloppy. Oh yeah, and UG sometimes blocks your tab if theres too much of them already, like i found out the hard way.