#3
this tab is right before he starts singing

E tuning: EBEG#Be
(you have to tune up your 3rd, 4th and 5th strings) I didn't do it, don't want to take chances with my strings, so tabbing the song has been a little pain, hope I didn't make any mistakes..


e|--------------------------------------------------------------------------------------------------|
B|--------------------------------------------------------------------------------------------------|
G#|-----------------------------------------------------------------------------------------------|
E|-------0------0------0------0-----0------0-----0-------------0------0-----0------0-----0--|
B|---------------------------------------------------------0h2------------------------------------|
E|----0-----0-------0------0-----0-----0------0--------------------0-----0------0------0------|

e|-------------------------------------------------------------------------------------------------|
B|-------------------------------------------------------------------------------------------------|
G#|---------------------------------------------0------------------------------------------------|
E|-------0-------0---------0--------0------------------0-------0-------0-------------0--------|
B|--------------------0h2----------------5/7-------------------------------0h2-----------5/7-|
E|----0-------0-----------------0-------------------0-------0------0--------------0------------|

e|-----------------------------------------------------------------------------------------------|
B|---------------------------------------------------------------------------------------------7-|
G#|----------7/-0----------------------------0---7/-0------------------5/-0------------7----|
E|--------0--------------0---------0-------------------------0----------------------------------|
B|----------------------------0h2-----5/7-----------------------0h2-----------------0--------|
E|---0---------------0-----------------------------------0-----------------------4/-------------|

e|--------------------------------------------------------------5----------7-------------------5---5-------|
B|--------------------------------------------------------------5----------7-------------------5---5-----|
G#|---7h8--7------------------------------------------------5-----------7------------------5---5--------|
E|----------------9-7--------------------0------0------0-----5-------0--7------0-----0----5---5---------|
B|----------------------10-9/7\9-----------------------------5----------7-------------------5---5--------|
E|-------------------------------------0------0------0--------5----0-----7----0----0-------5---5----------|


e|--------------------------------------------0-----------------------------------------------7+-----------------|
B|---------------------------------------------------------------------------------------------7+----------------|
G#|------------------------------------------------(3 times)--------------------------------7+-(harmonics)|
E|--------0------------0--2p0----------0-----------------------------0-----------0--------7+----------------|
B|----------------------------------0h2-------------------------------------------------------7+---------------|
E|----0----------0h4----------------------------------------------0--------0h4-------0----7+---------------|
Last edited by crmrz at Aug 23, 2010,