#1
Hi guys, long time lurker, first time poster.

Been looking for any Joanne Shaw Taylor tab with no success (unless anyone can point me in the direction of anything)

So I would be really grateful if anyone could have a go at the intro to Kiss the Ground Goodbye link

Thank you folks
#2
standard 1/2 step down.. check the youtube video 'Kiss the Ground Goodbye.mp4'

e|-------------------------------------------------------------------------------------|
B|---7--8----9--9---xx----9------------------------------------9---8----7-7------|
G|---7--8----9--9---xx----9h11p9----9----------------------9---8----7-7-------|
D|---7--8----9--9---xx------------------9h11p9---9---------9---8----7-7-------|
A|---9--10--11-11--xx------------------------------9h11----11--10--9-9-------|
E|--------------------------------------------------------------------------------------|

e|-------------------------------------------------------------------------------------------------------------|
B|--7---------------------------7--6------2-2----2--------------------------------------10-10-10/12----|
G|--7h9p7---7----------------7--6------2-2----2h4--2-------------------------------11-11-11/13-----|
D|-------------7h9p7--7------7--6------2-2---------------5p4-2--------2------------12-12-12/14-----|
A|-----------------------7h9---9--8------4-4------------------------2h4------------------------------------|
E|---------------------------------------------------------------------------------3b--0-----------------------|
#3
crmrz - you sir, are a star.
I figured she played half a step down and thought this was pretty simple but just couldnt work it out for myself.
Thank you.
(Great riff innit)