#1
Hey me and my band want to perform David Glen Eisely's sweet victory, but unfortunately we can not find any bass or drum tabs for the song, if anyone has the tab or can make it for me it would be greatly appreciated.
Pigs on the Wing
#2
well if you tabbed it yourself, you'd be a lot better at writing original work since you could tab it from your head.

Plus you're only as accurate as the guy tabbing it.
#3
That was a friendly comment above This is the Spongebob song yeah? Probably when it comes to the rythm section less is more with this one; I think it's just a case of taking it nice and spaced out,

Verses:

G--------------------7------------------------------
D-----3--------3-5------3----3-------------------
A--5----3-5-5--------------3---3-1-0-1-1-/13-15 (ie slide to octave up)
E----------------------------------------------------


Chorus (and guitar break)

G-----------------------5---------------------5-7-5--
D---3----------3----5-----3---------5-5-5---------
A------5----3----5-----------5---3------------------5
E---------4----------------------4---------------

I am missing a note somewhere on the end of the guitar break, but hey; that's just me tabbing
#4
Thank you very much for your help, it is very appreciated.
Pigs on the Wing