Page 1 of 2
#1
i attached the first one. it really sucks due to my horrible gp skills so sorry. if anyone wants to fix and then re-upload it that would be awesome.

alright so i saw this done once before and it was pretty cool. i want to see if we can do it again. basically what you do is you copy paste the tab of the last person to post and then add one note/chord/whatever. try not to make it ridiculous like putting some really crazy chord that nobody can play

i say we leave it in A minor, that way its pretty easy to work with since most people know it

e|---------------------------------------------------------------------------|
B|---------------------------------------------------------------------------|
G|---------------------------------------------------------------------------|
D|---------------------------------------------------------------------------|
A|------7--------------------------------------------------------------------|
E|------5--------------------------------------------------------------------|
 


take it away pit

edit: also put the tabs in
 
so the tabs come out nicely plz

edit2:

e|---------------------------------------------------------------------------|
B|---------------------------------------------------------------------------|
G|---------------------------------------------------------------------------|
D|---------------------------------------------------------------------------|
A|---------------------------------------------------------------------------|
E|---------------------------------------------------------------------------|
here is a blank tab, so that if the song starts to get long and you need another line, you just copy paste this one and continue it
Last edited by ironman1478 at May 30, 2010,
#2
e|---------------------------------------------------------------------------|
B|---------------------------------------------------------------------------| 
G|---------------------------------------------------------------------------| 
D|---------------------------------------------------------------------------| 
A|------7/9--------------------------------------------------------------------| 
E|------5/7-------------------------------------------------------------------|
DeVillains!
#3
e|---------------------------------------------------------------------------| B|---------------------------------------------------------------------------| G|---------------------------------------------------------------------------| D|------------7--------------------------------------------------------------| A|------7/9--5-----------------------------------------------------------------| E|------5/7-------------------------------------------------------------------|
#5
e|--------------7-------------------------------------------------------------|
B|--------------7-------------------------------------------------------------|
G|--------------7-------------------------------------------------------------|
D|---------------------------------------------------------------------------|
A|------7/9-----------0------------------------------------------------------
E|------5/7-----------0-------------------------------------------------------
#6
Quote by MightyAl
Oh yea, the Pit's all getting a turn to put something in A minor.



Quote by Wulphy
Being a Republican should be a handicap.
#7
Code:
e|---------------------------------------------------------------------------|
B|---------------------------------------------------------------------------|
G|---------------------------------------------------------------------------|
D|---------------------------------------------------------------------------|
A|------7/9/5--------------------------------------------------------------|
E|------5/7/5---------------------------------------------------------------|
__________________
#8
e|---------------------------------------------------------------------------|
B|---------------------------------------------------------------------------| 
G|---------------------------------------------------------------------------| 
D|---------------------------------------------------------------------------| 
A|------7/9-----7/9----9-------7------6----------------------------------| 
E|------5/7-----5/7----7-------5------4----------------------------------|
#9
e|----------------------------------24---------------------------------------|
B|---------------------------------------------------------------------------| 
G|---------------------------------------------------------------------------| 
D|---------------------------------------------------------------------------| 
A|------7/9-----7/9----9-------7------6----------------------------------| 
E|------5/7-----5/7----7-------5------4----------------------------------|
#11
e|----------------------------------24h26p5-------------------------------------|
B|---------------------------------------------------------------------------| 
G|---------------------------------------------------------------------------| 
D|---------------------------------------------------------------------------| 
A|------7/9-----7/9----9-------7------6----------------------------------| 
E|------5/7-----5/7----7-------5------4----------------------------------|
#13
e|----------------------------------24-------------------------------------------------15b-
B|----------------------------------------------------------------------9-12--15-12-------|
G|----------------------------------------------------------------7-9------------------------|
D|----------------------------------------------------------6-9------------------------------|
A|------7/9-----7/9----9-------7------6------------5-7-----------------------------------|
E|------5/7-----5/7----7-------5------4-----5-8-7---------------------------------------|
#14

e|----------------------------------24-------------------------------------------------15b--5-0-0-2-0-4-5-|
B|----------------------------------------------------------------------9-12--15-12--------------------------|
G|----------------------------------------------------------------7-9-------------------------------------------|
D|----------------------------------------------------------6-9-------------------------------------------------|
A|------7/9-----7/9----9-------7------6------------5-7------------------------------------------------------|
E|------5/7-----5/7----7-------5------4-----5-8-7----------------------------------------------------------|
#15
e|-------------------------24h26p5--------------------------------------15b--5-0-0-2-0-4-5-|
B|-----------------------------------3/9-------------------9-12--15-12----------------------| 
G|-----------------------------------------------------7-9----------------------------------| 
D|-----------------------------------1/7-----------6-9--------------------------------------| 
A|-7/9---7/9---9---7---6-----------------------5-7------------------------------------------| 
E|-5/7---5/7---7---5---4-----------------5-8-7----------------------------------------------|

e|-16-12-12--15-12-12--16\17-------------------------------------------------------------|
B|------------------------------------------------------------------------------------------------| 
G|------------------------------------------------------------------------------------------------| 
D|------------------------------------------------------------------------------------------------| 
A|-------------------------------------------------------------------------------------------------| 
E|-------------------------------------------------------------------------------------------------|
#16
e|-16-12-12--15-12-12--16\17-----------------------------------------------------------------------------|
B|---------------------------11/17b22------------2-------------2--L-----------------2--------------------|
G|---------------------------------------------x-2b----x-----x-2b-L-x---x---------x-2b-------------------|
D|---------------------------8p1h12/26/3-2b--4-x-----4-x-2-4-x------x-4-x---2b--4-x-----4-2--------------|
A|---------------------------2--------------------------------------------------------------4-3-2-3-<>4~-| 
E|---------------------------4h5h12----------------------------------------------------------------------|
#17
Kay, this is what we have so far then:

e|------------------------22h24------------------------------------------15b----5-0-0-2-0-4-5---|
B|----------------------------------------------------------9-12--15-12-------------------------| 
G|-------------------------------3/7-------------------7-9--------------------------------------| 
D|------------------------------------------------6-9-------------------------------------------| 
A|-7/9---7/9---9---7---6---------1/5---------5-7------------------------------------------------| 
E|-5/7---5/7---7---5---4--------------5-8-7-----------------------------------------------------|

e|-16-12-12--15-12-12--16\17-----------------------------------------------------------------------------|
B|---------------------------11/17b22------------2-------------2--L-----------------2--------------------|
G|---------------------------------------------x-2b----x-----x-2b-L-x---x---------x-2b-------------------|
D|---------------------------8p1h12/26/3-2b--4-x-----4-x-2-4-x------x-4-x---2b--4-x-----4-2--------------|
A|---------------------------2--------------------------------------------------------------4-3-2-3-<>4~-| 
E|---------------------------4h5h12----------------------------------------------------------------------|

e|---------------------------------------------------------------------------------------| 
B|---------------------------------------------------------------------------------------| 
G|---------------------------------------------------------------------------------------| 
D|---------------------------------------------------------------------------------------| 
A|---------------------------------------------------------------------------------------| 
E|---------------------------------------------------------------------------------------|

Next please!

/] 三方 [\
^^^^^^^^^^^^^^^^^^^^^^^^^^^^^^^^^^^^^^^^^
Last edited by shwilly at May 30, 2010,
#20
Quote by kaptink
What's the musical notation for whammying without a whammy bar?

put WWWB above the tab?
#21
Quote by kaptink
What's the musical notation for whammying without a whammy bar?


The wierd wave-like "-".
#22
e|------------------------22h24------------------------------------------15b----5-0-0-2-0-4-5---|
B|----------------------------------------------------------9-12--15-12-------------------------| 
G|-------------------------------3/7-------------------7-9--------------------------------------| 
D|------------------------------------------------6-9-------------------------------------------| 
A|-7/9---7/9---9---7---6---------1/5---------5-7------------------------------------------------| 
E|-5/7---5/7---7---5---4--------------5-8-7-----------------------------------------------------|

e|-16-12-12--15-12-12--16\17-----------------------------------------------------------------------------|
B|---------------------------11/17b22------------2-------------2--L-----------------2--------------------|
G|---------------------------------------------x-2b----x-----x-2b-L-x---x---------x-2b-------------------|
D|---------------------------8p1h12/26/3-2b--4-x-----4-x-2-4-x------x-4-x---2b--4-x-----4-2--------------|
A|---------------------------2--------------------------------------------------------------4-3-2-3-<>4~-| 
E|---------------------------4h5h12----------------------------------------------------------------------|

e|-----12----14----12-----12-------------------------------------------------------------| 
B|----13----16----13-----13--------------------------------------------------------------| 
G|---14----16----14-----14---------------------------------------------------------------| 
D|--14----16----14-----14----------------------------------------------------------------| 
A|-12----14----12-----12-----------------------------------------------------------------| 
E|---------------------------------------------------------------------------------------|

Some arpeggios won't hurt anyone.
Last edited by GisleAune at May 30, 2010,
#23
Quote by GisleAune
e|------------------------22h24------------------------------------------15b----5-0-0-2-0-4-5---|
B|----------------------------------------------------------9-12--15-12-------------------------|
G|-------------------------------3/7-------------------7-9--------------------------------------|
D|------------------------------------------------6-9-------------------------------------------|
A|-7/9---7/9---9---7---6---------1/5---------5-7------------------------------------------------|
E|-5/7---5/7---7---5---4--------------5-8-7-----------------------------------------------------|

e|-16-12-12--15-12-12--16\17-----------------------------------------------------------------------------|
B|---------------------------11/17b22------------2-------------2--L-----------------2--------------------|
G|---------------------------------------------x-2b----x-----x-2b-L-x---x---------x-2b-------------------|
D|---------------------------8p1h12/26/3-2b--4-x-----4-x-2-4-x------x-4-x---2b--4-x-----4-2--------------|
A|---------------------------2--------------------------------------------------------------4-3-2-3-<>4~-|
E|---------------------------4h5h12----------------------------------------------------------------------|

e|-----12----14----12-----12-------------------------------------------------------------|
B|----13----16----13-----13--------------------------------------------------------------|
G|---14----16----14-----14---------0--3---5---0---3--6--5--0--3--5---3------------|
D|--14----16----14-----14----------0--3---5---0---3--6--5--0--3--5---3------------|
A|-12----14----12-----12-----------------------------------------------------------------|
E|--------------------------------------------------------------------------------------------|

.


meh
#27
How the jizz**** would you play that 2nd bar about a quarter in
Quote by Venice King
Snatch is such a crude term - Use a better one like axe-wound or cave-opening.

Gear:
Ibanez ART300
Roland Cube 20X


I make trip-hop
https://soundcloud.com/chris-thomas-214
^ Check it out
#28
Quote by MightyAl
Oh yea, the Pit's all getting a turn to put something in A minor.

thats the only time that joke has ever made me laugh.
Quote by SomeoneYouKnew
Your post was the only bright spot in this disgusting piece of thread.

Quote by lexanirider78
You have balls. I like balls....(awkward silence)

Quote by SeveralSpecies
I waited for the rape.

...


...but the rape never came
#29
e|---------8------------------------------------------------------------------|
B|--------8-------------------------------------------------------------------|
G|-------7-------------------------------------------------------------------|
D|------7--------------------------------------------------------------------|
A|------8--------------------------------------------------------------------|
E|------x--------------------------------------------------------------------|

Make this the last note, it's the sex chord.
#30
okay i put it in guitarpro, but i don't know how to upload it. if anybody can tell me how i would put it in the first post. also i have never actually used GP to make a song, so the timing is probably not what you guys imagined in your head, so it sounds hilariously awful.
Attachments:
ug song 1.gp5
Last edited by ironman1478 at May 30, 2010,
#31

e|------------------------22h24------------------------------------------15b----5-0-0-2-0-4-5---|
B|----------------------------------------------------------9-12--15-12-------------------------| 
G|-------------------------------3/7-------------------7-9--------------------------------------| 
D|------------------------------------------------6-9-------------------------------------------| 
A|-7/9---7/9---9---7---6---------1/5---------5-7------------------------------------------------| 
E|-5/7---5/7---7---5---4--------------5-8-7-----------------------------------------------------|

e|-16-12-12--15-12-12--16\17-----------------------------------------------------------------------------|
B|---------------------------11/17b22------------2-------------2--L-----------------2--------------------|
G|---------------------------------------------x-2b----x-----x-2b-L-x---x---------x-2b-------------------|
D|---------------------------8p1h12/26/3-2b--4-x-----4-x-2-4-x------x-4-x---2b--4-x-----4-2--------------|
A|---------------------------2--------------------------------------------------------------4-3-2-3-<>4~-| 
E|---------------------------4h5h12----------------------------------------------------------------------|

e|-----12----14----12-----12-------------------------------------------------------------| 
B|----13----16----13-----13--------------------------------------------------------------| 
G|---14----16----14-----14---------0--3---5---0---3--6--5--0--3--5---3--6--------| 
D|--14----16----14-----14----------0--3---5---0---3--6--5--0--3--5---3--5---------| 
A|-12----14----12-----12-----------------------------------------------------------------| 
E|--------------------------------------------------------------------------------------------|

lulz tritone
Quote by asator
YOU'RE A CUNT AND STUFF LESPAUL1216.


It's okay because whatever, forever
#33
e|------------------------22h24------------------------------------------15b----5-0-0-2-0-4-5---|
B|----------------------------------------------------------9-12--15-12-------------------------| 
G|-------------------------------3/7-------------------7-9--------------------------------------| 
D|------------------------------------------------6-9-------------------------------------------| 
A|-7/9---7/9---9---7---6---------1/5---------5-7------------------------------------------------| 
E|-5/7---5/7---7---5---4--------------5-8-7-----------------------------------------------------|

e|-16-12-12--15-12-12--16\17-----------------------------------------------------------------------------|
B|---------------------------11/17b22------------2-------------2--L-----------------2--------------------|
G|---------------------------------------------x-2b----x-----x-2b-L-x---x---------x-2b-------------------|
D|---------------------------8p1h12/26/3-2b--4-x-----4-x-2-4-x------x-4-x---2b--4-x-----4-2--------------|
A|---------------------------2--------------------------------------------------------------4-3-2-3-<>4~-| 
E|---------------------------4h5h12----------------------------------------------------------------------|

e|-----12----14----12-----12-------------------------------------------------------------| 
B|----13----16----13-----13--------------------------------------------------------------| 
G|---14----16----14-----14---------0--3---5---0---3--6--5--0--3--5---3--6--------| 
D|--14----16----14-----14----------0--3---5---0---3--6--5--0--3--5---3--5---------| 
A|-12----14----12-----12-----------------------------------------------------------------| 
E|--------------------------------------------------------------------------------------------|

e|------15p12---------------------------------------------------------------------|
B|---------------15p12------------------------------------------------------------|
G|-------------------------14b16~--------------------------------------------------|
D|---------------------------------------------------------------------------|
A|---------------------------------------------------------------------------|
E|---------------------------------------------------------------------------|

Quote by SomeoneYouKnew
Your post was the only bright spot in this disgusting piece of thread.

Quote by lexanirider78
You have balls. I like balls....(awkward silence)

Quote by SeveralSpecies
I waited for the rape.

...


...but the rape never came
#34
Quote by ironman1478
okay i put it in guitarpro, but i don't know how to upload it. if anybody can tell me how i would put it in the first post. also i have never actually used GP to make a song, so the timing is probably not what you guys imagined in your head, so it sounds hilariously awful.





Dear christ I laughed so hard. Especially at the lonely 16/17 in measure 6 XD
#35
Quote by ironman1478
okay i put it in guitarpro, but i don't know how to upload it. if anybody can tell me how i would put it in the first post. also i have never actually used GP to make a song, so the timing is probably not what you guys imagined in your head, so it sounds hilariously awful.


OH GOD That's amazing
#36
since we finished that one, lets make a new one. i will learn how to use GP properly and make it better next time. this time in the key of G major


e|-----3----------------------------------------------------------------------|
B|-----0----------------------------------------------------------------------|
G|-----0----------------------------------------------------------------------|
D|-----0----------------------------------------------------------------------|
A|-----2---------------------------------------------------------------------|
E|-----3---------------------------------------------------------------------|
 
#39
for those of us who don't have guitar pro...
Quote by jimmyled
You have a Badger Song avatar!!!!!

Quote by Oprah
VAJAYJAY


Monkey Ball Sack

#40
I put it in Gpro. http://rapidshare.com/files/393439983/make_a_song_wtf.midi EDIT: this ones faster and funnyier than the one posted before.

I had to guess the rhythm alot because no one bothered to write the timing of the notes so if I got a riff reference wrong then tough.

From now on let's continue with the rhythm added. the tempo is 145.

145 BPM


    E   E   E   E   Q    E   E    +E   E   Q    Q    Q
                             PM
E|-------------------------------|------------------------|
B|o------------------------------|-----------------------o|
G|-------------------------------|------------------------|
D|--0-------0-------0--------3---|-+---3---3--------------|
A|o--------------------------1---|-+---1---1----3----4---o|
E|--3-------3-------3----3-------|--------------1----2----|

(the plus just means a tie)


btw:
W=Whole
H= Half
Q= Quarter
E= Eighth
S= Sixteenth
T= Thirty-second
X=Sixty-fourth (not that you're going to need this one :p)
Musical Theatre! *jazz hands*


...what am I doing on this site...
Last edited by MetaIronForce at May 30, 2010,
Page 1 of 2