#1
I just came up with this because i've been playing without my high e string...let me know what you think!
Excuse my mediocre tabbing skills... and spacing between notes...


Sweep
Don't stop after each measure. The measures are just continuations. (if that makes sense)

G|----9---------9---------9---------9--------10----------------------
D|--7---10---7---10---7---10---7----10--------------------------------


G|----7----------7---------7----------7-----9----------------------
D|--5---9----5-----9----5---9-----5---9---------------------------------

G|----5----------5---------5----------5----7----------------------
D|--3---7----3-----7----3---7-----3---7---------------------------------


G|----4----------4---------4----------4-------------------------
D|--2---5----2-----5----2---5-----2---5----2~~~~--------------------
"The mind is everything. What you think, you become."
Last edited by mardisaaron at Jun 6, 2010,
#2
1) Use guitar pro
2) You're playing arpeggios in a way which wouldn't be deemed arpeggios (in my eyes)