#1
Hi!

I am learning Rylynn by Andy Mckee and I'm having some trouble in this part


---------------------------0-|
----------------7---------7-|
----14----12-----------5---5-|
----12----14-----5---5---5-9-|
-----5-----5--x--9---------x-|
----13----13--x--5---------x-|


and


--L---------------0---0------0-|
-----------------10-------5-10-|
----14----16------5-----5----5-|
----12----14-------------------|
-----5-----5--x--------------x-|
----13----13--x---5----------x-|


v
E. E S S S S E E S S S
---0---------7s-9-10-9--------9-10h-|
--10----8---------------10----------|
---5----5----------------0----------|
-------10---------------------------|
-----------x----------------x-------|
-------10--x------------12--x-------|


They came out kinda wrong so here are the tabs I'm using http://www.ultimate-guitar.com/tabs/a/andy_mckee/rylynn_tab.htm

Any tips on playing this?

Thanks, Stav.
#2
Alright I just cut an old capo down to partial, so I'm determined to help you now Haha. I never played Rylynn before, but I play a lot of other similar style songs.

I can't figure out exactly which portion of the tab those pieces are from, if you could give me a time signature from Andy's Youtube Video I could probably help you out.

Use http://www.youtube.com/watch?v=JsD6uEZsIsU so we are on tact together.

I just sat down with the piece so I'll see fi I can figure it out, but get me a time placement and it'll be easier.