#1
WHY is this not here when its the theme music to one of the best games ever?
Can anyone figure out the chords to the guitar part of the main theme to the first Spyro? I tried for a while but couldn't figure it out.
Thanks
#2
Here they are! At long last! Thank you to 'Nathan Sharp' on YouTube for these cohrds
Part I

C - F - G - A#

E|-------------------------------
B|-----------------10------------
G|------9--10--10------10--7--5--
D|--10---------------------------
A|-------------------------------
E|-------------------------------

Part II

F - D# - C# - A# - C# - C

E|--------------------------------------*--------------------------------
B|-----4--6--4-----4--------4-----------*--------------------------------
G|--5-----------5-----3--5---------3--5-*-3--3--3------6--6--5--3--5--5--
D|--------------------------------------*--------------------------------
A|--------------------------------------*--------------------------------
E|--------------------------------------*--------------------------------

Part III

F - A# - F

E|--------------------------------------*----------------------------
B|-----5--7--3----3--5------------------*----------------------------
G|--3-------------------3--3------------*----------------------------
D|--------------------------------------*----3--5--3-----------3--3--
A|------------------------------------3-*-6-----------6--3--6--------
E|--------------------------------------*----------------------------