#1
Pit, I remember haring this riff somewhere, what song is it from?

e|-----------------------------------------------------------
B|----------------------------------------------------------
G|----------------------------------------------------------
D|-----------------------------------------------------------
A|-------------------------2----2---------------2--------------2-----
E|-0(let ring)-----0-2-3--------3-2-0-2-3-----3-2-0-2-3--3-2-

I'm fairly sure it's Iron Maiden.

Is it?
Slappa tha bass
Last edited by hootie37 at Jun 14, 2010,
#2
.....Care uploading an example of this riff? to me, that's just a bunch of notes.
#3
I'm pretty sure that the riff you're thinking of is in Iron Maiden - Hallowed be thy Name, but it's played higher.
Gear:

Guitars: Ibanez SV5470F, Ibanez Xpt700, Fender MIM Standard Stratocaster ('04-'05), Jackson Ps-2
Ashton AG200,
Amps: ENGL E530, Bugera 6262-212,
FX: TC Electronics G-major 2, Behringer EQ700, Morley Volume / Wah
#4
The Trooper?

EDIT: Yeah, I think it's Hallowed By Thy Name.
Quote by Tyler Durden
It's only after we've lost everything that we're free to do anything.

Erowid
#5
Quote by The^Unforgiven
I'm pretty sure that the riff you're thinking of is in Iron Maiden - Hallowed be thy Name, but it's played higher.


THANK YOU!!! And it's played an octave higher than what I put...

Thanks
Slappa tha bass
#6
lol. did you play it on accident?
i LOVE when that happens!
i did it with Carry On My Wayward Son a long time ago
“If it seems like you are playing around and not practicing, that's when you know you really love it.”
-Jack Johnson

Quote by lattea
i'm kinda gay

Quote by angusfan16
Well damn. You caught me. I'm horribly gay.

RIP Rev
#7
e|----------------------------------------------|
B|----------------------------------------------|
G|----------4--4------------4-------------4-----|
D|------4-5------5-4----4-5----5-4----4-5---5-4-|
A|-7--7--------------7-------------7------------|
E|----------------------------------------------|


I believe this is what you are looking for.
#8
Quote by Kynyster_K
i did it with Carry On My Wayward Son a long time ago

How the hell do you play that one on accident?