#1
Has anyone got a decent Some might say tab, i have the oasis singles collection book but, i have noticed the tab is not what noel is playing. even when i watch live gigs he starts the intro around the second and fourth fret, and the intro also seems to be short.
for reference here is the intro tab i have, surely someone has the real tab noel plays. any help would be greatly appreciated


Intro

D5


E----------------------------------------------------------
B----------------------------------------------------------
G-------------------------------------------------------2s
D--7-----9------7-----9--7-----7--9-----7------7--2s
A--5--5--5--5--5--5--5--5----5--5--5--5--5--5--0s
E---------------------------------------------------------


Bsus2


E-----------------------------------------
B--------------2------2------2----------
G-s4----------4------4------4----------
D-s4---4-------4------4------4------4s
A-s4---2------------------------------4s
E-----------------------------------------



G


E--------------------3----------
B-------------------------3-----
G-------------4----------------4
D-s5--5------------------------
A-s5--5------------------------
E--------------------------------


D



E-2----------------0---------------------0
B-------3------------------3--------------
G------------2--------------------2-------
D-0----------------------------------------
A------------------------------------------
E------------------------------------------


A


E-------------------------------------------------------------
B--2-3--2--3-3--2------------3------3-----3-----3-----3-
G--2-2--2--2-2--2------------2------2-----2-----2-----2-
D--2-2--2--2-2--2------------2------2-----2-----2-----2-
A--0-0--0--0-0--0----------------0----------------0-------
E-------------------------------------------------------------


D


E--------------------------------2-------------------
B--5fb--5--3--5--3----5fb---------5--3----------
G----------------------------------------------2--2-
D-----------------------------------------------------
A-----------------------------------------------------
E-----------------------------------------------------


Bm


E--------------------------------------3---2--0------
B---------3--5--5fb(r)--3--5----3--3-----------3--
G--2h4-----------------------------------------------
D------------------------------------------------------
A-------------------------------------------------------
E-------------------------------------------------------


G


E--s5--5s3----2---3---2------------
B--s5--5s3----3---3---3------------
G-----------------------------2--------
D---------------------------------------
A---------------------------------------
E---------------------------------------


D


E--s5--5--5--7----5---7s-----
G--s5--7--7--------------------
D--------------------------------
A--------------------------------
E--------------------------------


A


E-------------------------------
B---------2--2---2------2--2-
G---------2--2---2------2--2-
D---------2--2---2------2--2-
A--0--0--------------0--------
E-------------------------------
Last edited by IanmcL89 at Jun 16, 2010,
#2
Maybe he plays the first chord like this

Intro

D5


E
B 2 x 4 x 2 x 4 2 2 4 x 2 x 2
D 0 0 0 0 0 0 0 0 0 0 0 0 0 0
A
E