#1
Right, I've completely tabbed out this song (Purify - Rise to Remain) by ear except the main (intro) riff - here's what I've worked out so far:


E----------------------------------------------------------------------
B----------------------------------------------------------------------
G----------------------------------------------------------------------
D---000--7--5/7--7--000---------------????--00--7--00--7---
A---000--5--3/5--5--000--3/6--5--3--????--00--5--00--5---
D---000----------------000----------------????--00-----00-------

Any help you could offer would be very gratefully recieved

HERE'S A LINK TO THE SONG: http://www.youtube.com/watch?v=FeF5tTA_JqU

The riff in question starts at 0:04.

PLEASE HELP!!!



Last edited by 04rumbola at Jun 21, 2010,
#2

E----------------------------------------------------------------------
B----------------------------------------------------------------------
G----------------------------------------------------------------------
D-0-0-0-7-0-0-5/7-0-7-0-0-7/8\7-5-7-0-0----------------------------- 
A-0-0-0-5-0-0-3/5-0-5-0-0-5/6\5-3-5-0-0-----5-----5---------------
D-0-0-0---0-0-----0---0-0-----------0-0-0-3---0-3-----------------------

Second time:

E------------------------------------------------------------------------
B------------------------------------------------------------------------
G------------------------------------------------------------------------
D-0-0-0-7-0-0-5/7-0-7-0-0-7/8\7-5-7-0-0-3---5--------------------------
A-0-0-0-5-0-0-3/5-0-5-0-0-5/6\5-3-5-0-0-1---3--------------------------
D-0-0-0---0-0-----0---0-0-----------0-0--------------------------------------


As good as I can get it at the mo, hope it helps.

P.S. There's a 6 note mini harmony at the end of one of the measures too (0:23-0:24), but I guessed you had that already.
Ibanez RG2550E Prestige
Squier Bullet
Roland Cube 30W