#1
We need better 3DG Tabs. I just joined Ultimate Guitar and yet I already made a Tab (But not complete) Of the song "It's all over". Here it is:

(Forum made it kinda messed up)

-Main Riff-
e|-------------------------------------------------------------------------------------------|
B|-------------------------------------------------------------------------------------------|
G|-5-5--5--------------------------------5-5--5------------------------------------------|
D|-5-5--5--5-5--1-1--1-0h-1-0h-1--5-5--5--5-5--1-1--1-0h-1-0h----------------|
A|-3-3--3--5-5--1-1--1-0h-1-0h-1--3-3--5--5-5--1-1--1-0h-1-0h----------------|
E|-----------5-5--1-1--1-0h-1-0h-1------------5-5--1-1--1-0h-1-0h----------------|

e|-----------------------------------------------------------------------------------------|
B|-----------------------------------------------------------------------------------------|
G|-5-5--5--------------------------------------------------------------------------------|
D|-5-5--5--5-5--1-1--1-0h-1-0h-1---3-3-3-3-3-3-3-3-1-------------------------|
A|-3-3--3--5-5--1-1--1-0h-1-0h-1---3-3-3-3-3-3-3-3-1-------------------------|
E|-----------5-5--1-1--1-0h-1-0h-1---3-3-3-3-3-3-3-3-1-------------------------|
============================================================

-Chours Riff-
e|---------------------------------------------------------------------------------------------------------------|
B|---------------------------------------------------------------------------------------------------------------|
G|---------------------------------------------------------------------------------------------------------------|
D|---------------------------------------------------------------------------------------------------------------|
A|-3333------6666-5656-------3333-------6666------5656--3333-------6666-5656-8888888-6-|
E|-------5555----------------------------5555---------------------------5555------------------------------|
-Alt Guitar in Chours Riff- [Backround]
e|-88888888888888888--88888888888888888--888888888888888888888888888--(etc)--|
B|----------------------------------------------------------------------------------------------------------------|
G|----------------------------------------------------------------------------------------------------------------|
D|----------------------------------------------------------------------------------------------------------------|
A|----------------------------------------------------------------------------------------------------------------|
E|----------------------------------------------------------------------------------------------------------------|

Ya, Generally i would like people to make better 3DG Tabs cause they're an awesome band.
#3
First of all, put that shit in code. Go into the advanced reply field, highlight the tab, and press the # button above where you type stuff.

Second, this isn't where you submit tabs.
#4
Quote by Ninja Vampirate
First of all, put that shit in code. Go into the advanced reply field, highlight the tab, and press the # button above where you type stuff.

Second, this isn't where you submit tabs.


Irrelevant post, but nice signature. Douglas Adams is the man.
Dissonance is Bliss


Signal Chain:
Carvin CT-4
Ibanez TS-9
Carvin Quad-X
TC Electronics G-Major
Mesa/Boogie 2:90
Ear Candy BuzzBomb



Member #4 of the Carvin Club
#5
Quote by Doodleface
Irrelevant post, but nice signature. Douglas Adams is the man.


Thankyou very much, and indeed he is... the Hitchhiker's Guide is like my bible