#2
-------12---15---19b20-19---17---12b13---15--12b13r12-------------
--10--------------------------------------------------------------
---------------------------------------------------------12-------
------------------------------------------------------------------
------------------------------------------------------------------
------------------------------------------------------------------

--------------------------------------12----12-15-10-13-----------
--15b17b15-13---I’ll just write-------13-13-13-13-12-12-----------
----------------out the chords--------14-14-12-12-12-13-----------
----------------from here, you can-------15-----------------------
----------------figure out the------------------------------------
----------------picking pattern-----------------------------------

--12------------15-15-16-17---------------------------------------
--13-13h15p13---17-15-15------------------------------------------
--14-14------14-17-16-16------------------------------------------
-----15-----------------------------------------------------------
------------------------------------------------------------------
------------------------------------------------------------------
Should be about right.
Only play what you hear. If you don’t hear anything, don’t play anything.
-Chick Corea
#3
i have tabbed my version. Check it out! I have uploaded it to UG. Probably you will find the link my profile.