#1
i keep hearing the intro to this song on loads of adverts and tv stuff and its been really annoying me. The guitar melody goes something like this:

e---------------------------------------------------
b---------------------------------------------------
g -----------11-10-9-6--6-6-7-9-----------
d -------9--9-----------------------------------
a--------------------------------------7--7--10---
e------------------------------------------------------

If its helps the first advert i saw it on which i presume was to promote the band and song, was purely a black screen with the music playing behind it. thanks
#2
put it in code...
[img]http://i.imgur.com/LYZyCdp.gif[/img]


Quote by CrossBack7
Momie's like not even a real person, just an asian, lesbian spirit.
#4
Quote by SG_dave
that sounds awful

This.

Why would you want to find that song?
maybe if you had a
revolver
you'd
suck less

press
↑ ↑ ↓ ↓ ← → ← → B Areceive bacon

Gamertag: Seanslaught
PSN: BeastlyBassist
Steam: Beastly396
#6
Quote by Momentosis
put it in code...


e---------------------------------------------------
b---------------------------------------------------
g -----------11-10-9-6--6-6-7-9-----------
d -------9--9-----------------------------------
a--------------------------------------7--7--10---
e------------------------------------------------------


I'll do it for him since clearly he's not editing the OP...

Even though it didn't really help at all.

EDIT: Also, I don't think he even tabbed the right notes, that sounded horrible.
Last edited by ItsOnlyGNR at Jun 27, 2010,
#7
Quote by ilovethinlizzy
i keep hearing the intro to this song on loads of adverts and tv stuff and its been really annoying me. The guitar melody goes something like this:

e---------------------------------------------------
b---------------------------------------------------
g -----------11-10-9-6--6-6-7-9-----------
d -------9--9-----------------------------------
a--------------------------------------7--7--10---
e------------------------------------------------------


If its helps the first advert i saw it on which i presume was to promote the band and song, was purely a black screen with the music playing behind it. thanks


Wrong notes though, and I have no idea what song you mean.