#2
The Chords are E, B, D, A. Can be played:

E ----0----2----2----0----
B ----0----4----3----2----
G ----1----4----2----2----
D ----2----4----0----2----
A ----2----2----X----0----
E ----0----X----X----X----

OR

E ----7----7----5----5----
B ----9----7----7----5----
G ----9----8----7----6----
D ----9----9----7----7----
A ----7----9----5----7----
E ----X----7----X----5----
Last edited by AntonCampbell at Feb 1, 2013,