#1
anybody? basically record your stairway solo and we'll judge it?
Quote by jimmyled
You have a Badger Song avatar!!!!!

Quote by Oprah
VAJAYJAY


Monkey Ball Sack

#3
Quote by rocker222
to long, easy, lame, and every one knows it.


thats the point. its something everybody could participate in, you just have to put your own spin on it etc etc
Quote by jimmyled
You have a Badger Song avatar!!!!!

Quote by Oprah
VAJAYJAY


Monkey Ball Sack

#4
im in
but it'll take me awhile as i dont have any recording equipment atm. D:

everybody says its lame now but still one of my favorite songs it should be fun ;D
#5
Seeing as how I just learned it today, so I've been playing it non-stop for like 2hours... I'M IN!
My Gear:
Schecter Hellraiser FR Special.
EpiG400 lefty w/Dimarzio X2N/ Irongear Hot Slag
Peavey 6505+112 (head)
2x12 Cab w/ WGS v30 / gt65
GFS Tuner
TS-9 (Keeley ish mod)
Dunlop GCB-95 Wah truebypass
ICP Gstring Decimator
#8
--------------12-11-10---------------------------------------------------------12-11-10-12-11-10
-12--10-------------------------------------------12---10--13--11--14--9
-------------------------------10--12-------------------------------------------------------------------
----------------------------------------------------------------------------------------------------------
----------------------------------------------------------------------------------------------------------
----------------------------------------------------------------------------------------------------------


12-11-12-11-10-12-11-10-12-11------------------------------------------------------------------------
----------------------------------------------------------------------------------------------------------------
-------------------------------------------9879879898798798/--12-11-10-----------------------------
---------------------------------------------------------------------------------12-11-10---------------------
-------------------------------------------------------------------------------------------12-11-10-----------
-----------------------------------------------------------------------------------------------------12-11-10-


-----------------------------------------------------------------------------------------12-11-10---------------
-------------------------------------------------------------------------12-10b----------------------------------
-12-11-10-------------------------------------------------------12-10-----------------------------10-12b\9
-----------12-11-10---------------------------------------12-10-----------------------------------------------
---------------------12-11-10------------------------12-10----------------------------------------------------
-------------------------------12-11-10b------12-10-----------------------------------------------------------


Tell me what you think