#1
Hey everyone,

I just had a quick question for you tabbers. I need help with figuring out the chords Paul Gilbert uses in Green Tinted Sixties Mind, after the intro he plays 4 chords, how does he play them? In all tabs on the internet, they say to play
|------------------|----------------|---------------|----------------------|
|----9-------------|--------*-------|-----10--------|---------(10)---------|
|----9-------------|--------*-------|-----9---------|---------(9)----------|
|----9-------------|--------*-------|-----9---------|---------(9)----------|
|----7-------------|--------*-------|-----7---------|---------(7)----------|
|------------------|----------------|---------------|----------------------|

D5 E5
|------------------|----------------|---------------|----------------------|
|------------------|----------------|---------------|----------------------|
|----7-------------|--------*-------|-----9---------|-------(9)------------|
|----7-------------|--------*-------|-----9---------|-------(9)------------|
|----5-------------|--------*-------|-----7---------|-------(7)------------|
|------------------|----------------|---------------|----------------------|


But in his demonstration in Tokyo, he doesnt play that. The song starts at 2:40 but the part is after the intro riff. http://www.youtube.com/watch?v=9VTXIfG-R-8
You can see he plays something else, do you know how he does it?

Thanks