Poll: Which version of Unholy Confessions sounds more accurate?
Poll Options
View poll results: Which version of Unholy Confessions sounds more accurate?
Version #1
2 13%
Version #2
13 87%
Voters: 15.
#1
Which do you think sounds more accurate?
d: i cant figure it out, hahaha.

Version #1
E|------------------------------------------------------------------------------------------------------|
B|------------------------------------------------------------------------------------------------------|
G|------------------------------------------------------------------------------------------------------|
D|------------------------------------------------------------------------------------------------------|
A|-00-5-0-7-0-8-0-10-0-8-0-7h8p7-----88-10-0-8-0-7~--77-7-0-8-0------00-5-0-7-0-8-0-10-0-8-0-7h8p7------|
D|-00----------------------------10--88--------------77---------10~--00----------------------------10---|



Version #2
E||-------------------------------------|----------------------------------|
B||-------------------------------------|----------------------------------|
G||-------------------------------------|----------------------------------|
D||-------------------------------------|----------------------------------|
A||------5---7---8---10---8---7h8h7-----|------10---8---7------7---8-------|
D||--0-0---0---0---0----0---0-------10--|--8-8----8---8----7-7---7---7-10--|
Gear:
Epiphone SG Special
Peavy Vypyr amp

Been Playing Every day since July 30th, 2009.
No lessons, only the ones provided here at Ultimate Guitar.
#5
Version 2, but the last palm mute on the 7th fret shouldn't be there.
Gear
Ibanez GSA60
Jackson DXMGT
Schecter Hellraiser Tempest
Ibanez S470 DXQM
ESP LTD Deluxe EC-1000
Crate Halfstack and Crate 50W Tube Head
Boss MT-2, CH-1, CS-3, NS-2, & Cry Baby
Crate XT65R
#6
I think version 2 sounds better and is even more fun to play, but if you listen very closely to the recording, when it's just the lead guitar, it almost sounds more like the first one. Either way, I always play it the version 2 way. Maybe my ears deceive me.
Quote by Gunpowder
The Pit is to intelligence what a black hole is to light; it's devoid of reason and logic, and nothing can escape it's shadowy depths. Once you enter, you cannot leave.
#8
Version two is more correct. I remember seeing Zacky from A7X explaining the different ways to pick in between the two strings
-LTD Alexi 600
-LTD MH-100 QM
-Schecter Omen 6
-B-52 AT-112
Quote by My Father
So is this guitar Mexican made or human made? Wait, shit, that was really racist wasn't it?


My shitty covers: http://www.youtube.com/simpleben09
#9
Version two, palm mute the open notes on the Low E.
Guitar - Washburn X-50PROQ
Amp- Ibanez TBX15r (using to run my POD through)
Pedals - Line6 POD X3, Dunlop Crybaby Gcb-95