#1
Hi all. I'm trying to play this, its it 6/8 timing at 100bpm. i think its 32th notes as well..
T T T T T T T T T T T T T T T T T T T T T T T T
|-11p7---------------------7-11p7-------7-10p7---7-|
|------9-----------------9--------9---9--------9---8---|
|--------8-------------8------------8------------8-----|
|----------9---------9---------------------------------|
|------------11-6h11-----------------------------------|
|------------------------------------------------------|
the Psalm of Lydia intro sweeps and am wondering how to use a metronome to practice this. i have a korg KDM-2. I'm completely lost on how to use it, do i set it to beat 6 and play every beat, like what is 6/8 counting and how do i use a metronome to count it. thanks for the help!
Bobby
#2
Quote by Bobby2001
Hi all. I'm trying to play this, its it 6/8 timing at 100bpm. i think its 32th notes as well..
T T T T T T T T T T T T T T T T T T T T T T T T
|-11p7---------------------7-11p7-------7-10p7---7-|
|------9-----------------9--------9---9--------9---8---|
|--------8-------------8------------8------------8-----|
|----------9---------9---------------------------------|
|------------11-6h11-----------------------------------|
|------------------------------------------------------|
the Psalm of Lydia intro sweeps and am wondering how to use a metronome to practice this. i have a korg KDM-2. I'm completely lost on how to use it, do i set it to beat 6 and play every beat, like what is 6/8 counting and how do i use a metronome to count it. thanks for the help!
Bobby


Well...you could do that, but that's a headache...how about you subdivide it to 16th notes if you're playing 32 notes, and if you can't play that fast slow it down a bit