#1
ok so on the second part of the intro theres a spot in the song that is supposed to go-

e---------------------------------
B---------------------------------
G-----0h2p0--------------------
D---------------4-0--------------
A---------------------------------
E---------------------------------

ok when i do it it sounds nothing like it does on the song...am i missing something. if anyone can break this down for me i would greatly appreciate it. its almost like a slide sound but not.
#2
This is an easier way to play it.

E|-------------------------|-------------------------|-----------------------------|
B|-------------3-----------|-------------------------|-----------------------------|
G|---------0-------0-------|---------0-----------2---|---------0-------------------|
D|-----0---------------0---|-----------------0-------|-----0--------5--7--5--4--5--|
A|-3-----------------------|-----2-------------------|-----------------------------|
E|-------------------------|-0-----------2-----------|-3---------------------------|
Quote by satanicgurrl
Is this amazing? Could it be?
This newly posted mp3

Quoth the server "4 0 3"


Official Gain Wh0re

Gear:

  • ESP LTD EC-1000 Black Cherry
  • Hartke LH500 Full Stack
  • Line 6 Pod HD Pro
#4
Need to play it quite fast, all I can say. Cause the tab is correct. =) Keep practicing, you'll get it
PRS SE Custom 22 <3
Fender Stratocaster '57 RI
Fender Super Champ XD
Tanglewood TW115 CW