#1
i need to learn more shapes. but i want to start off with 3 string shapes. tell me any but some i would like to have are E, D, C, B (dont need tab just name of notes in order but tabs always nice)

E|----------------------------------------------
B|----------------------------------------------
G|----------------------------------------------
D|----------------------------------------------
A|----------------------------------------------
E|----------------------------------------------

for you
#2
E|--------1-------------------------------------
B|-----2---------------------------------------
G|--3-------------------------------------------
D|----------------------------------------------
A|----------------------------------------------
E|----------------------------------------------
minor shape


E|----------1-----------------------------------
B|------1--------------------------------------
G|---1-----------------------------------------
D|----------------------------------------------
A|----------------------------------------------
E|----------------------------------------------
minor

E|-------------1---------------------------------
B|--------3--------------------------------------
G|----2------------------------------------------
D|----------------------------------------------
A|----------------------------------------------
E|----------------------------------------------
minor
Can you figure out the rest from there?
#6
Quote by Darkdevil1584
just some sweep notes based off those notes would be nice


e|----------------22-
b|-------------23----
g|----------22-------
d|-------22----------
a|----21-------------
e|-20----------------


C7sus4add9/5-

There you go.
R.I.P. My Signature. Lost to us in the great Signature Massacre of 2014.

Quote by Master Foo
“A man who mistakes secrets for knowledge is like a man who, seeking light, hugs a candle so closely that he smothers it and burns his hand.”


Album.
Legion.
#8
Quote by Darkdevil1584
sorry. wasnt clear enough. a different sweep shape for every one of those notes D:


I redirect you to my first reply:
Quote by Zaphod_Beeblebr


Learn theory.
R.I.P. My Signature. Lost to us in the great Signature Massacre of 2014.

Quote by Master Foo
“A man who mistakes secrets for knowledge is like a man who, seeking light, hugs a candle so closely that he smothers it and burns his hand.”


Album.
Legion.
#9
E|-----------------q3-----------------------------
B|--------------7--------------------------------
G|-----------5-----------------------------------
D|--------3--------------------------------------
A|------0----------------------------------------
E|--24--------------------------------------------

I Think Its A Maj7 Actually!