#1
okay heres the tab that i'm working on-
http://www.ultimate-guitar.com/tabs/l/led_zeppelin/stairway_to_heaven_tab.htm

The problem that i have is that on the record i cant notice any difference between the parts-
|-3---3-3-3--3--0-0-|-2-------2-------|-3--3-3-3--3--0-0---7-|--5---3---5----|
|-1---1-1-1--1--1-3-|-3--3--3---3-0-0-|-1--1-1-1--1--1-1---8-|--7---5---7----|
|-2---2-2-2--2--2-2-|-2-----------0-0-|-2--2-2-2--2--2-2---9-|--7---5---7----|
|-2---2-2-2--2--2---|---0-------------|-2--2-2-2--2--2-2---0-|-------------0-|
|-------------------|-----------------|----------------------|-------------0-|
|-------------------|-----------------|----------------------|---------------|
Oooh it makes me wonder
|-3---3-3-3--3--0-0-|-2-------2-------|-3--3-3-3--3--0-0---7-|--5---3---5----|
|-1---1-1-1--1--1-3-|-3--3--3---3-0-0-|-1--1-1-1--1--1-1---8-|--7---5---7----|
|-2---2-2-2--2--2-2-|-2-----------0-0-|-2--2-2-2--2--2-2---9-|--7---5---7----|
|-2---2-2-2--2--2---|---0-------------|-2--2-2-2--2--2-2---0-|-------------0-|
|-------------------|-----------------|----------------------|-------------0-|
|-------------------|-----------------|----------------------|---------------|
oooh makes me wonder theres a


|-3--3-3-3--3p-0-0---7-|--5---3---5----|-3--3-3-3--3h-0-0-|-2-----2-2-2-2-0-0-|
|-1--1-1-1--1--1-1---8-|--7---5---7----|-1--1-1-1--1--1-3-|-3-----3-3-3-3-0-0-|
|-2--2-2-2--2--2-2---9-|--7---5---7----|-2--2-2-2--2--2-0-|-2-----2-2-2-2-0-0-|
|-2--2-2-2--2--2-2---0-|----------0----|-2--2-2-2--2--2---|----0--0-----------|
|----------------------|-------------0-|------------------|-------------------|
|----------------------|---------------|------------------|-------------------|
whoah
|-3--3-3-3--3--0-0---7-|--5---3---5----|
|-1--1-1-1--1--1-1---8-|--7---5---7----|
|-2--2-2-2--2--2-2---9-|--7---5---7----|
|-2--2-2-2--2--2-2---0-|----------0----|
|----------------------|-------------0-|
|----------------------|---------------|



AND


|-3--3-3-3--3--0-0-|-2-----2-2-2-2-----|-3--3-3-3--3--0-7-|
|-1--1-1-1--1--1-3-|-3-----3-3-3-3-0-0-|-1--1-1-1--1--1-8-|
|-2--2-2-2--2--0-0-|-2--2--2-2-2-2-0-0-|-0--0-2-0--0--0-9-|
|-2--2-2-2--2------|----0--0-----------|-2--2-2-2--2------|
|------------------|-------------------|------------------|
|------------------|-------------------|------------------|
and it won der

-5--3--5--|-3--3-3-3--3--0-0-|-2-----2-2-2-2-0-0-|-3--3-3-3--3--0-7-|-5--3--5-|
-7--5--7--|-1--1-1-1--1--1-3-|-3--3--3-3-3-3-0-0-|-1--1-1-1--1--1-8-|-7--5--7-|
-7--5--7--|-2--2-2-2--2--0-0-|-2--2--2-2-2-2-0-0-|-0--0-2-0--0--0-9-|-7--5--7-|
----------|-2--2-2-2--2------|-------------------|-2--2-2-2--2------|---------|
--------0-|------------------|-------------------|------------------|--------0|
----------|------------------|-------------------|------------------|---------|
oooh


All of these parts sound to me as if the tab should be the same, but obviously it isnt in this tab... just wondering if there is a common tab for these parts of the song, or are they all supposed to differ in some way?