#1
Alright fella's, normaly I have no problem reading tabs, but I'm stumped on the main riff for Muddy Water's "Hoochie Coochie Man":

e||---------5---|
B||---5\8-8-----|
G||-------------| X7
D||-------------|
A||-------------|
E||-------------|
Courtesy of Guitar E-tabs

I know to slide, but It seems I'm missing something, as the song calls for 6 notes on the riff, any help?
Fender American Standard Telecaster
Vox Night Train 15W
An ever-morphing BOSS and MXR loaded pedalboard

"I eats more chicken any man ever seen!"
-Howlin' Wolf
#2
the riff has 5 notes....
the tab is rubbish haha, there should be another '5' in between the two '8's

so like:
e||-------------5---|
B||---5-8-5-8-----|

hope that helps!