#1
---------------------------------------------------------------------------------------
-----(fairly quickly)-----------------------------------------------------------------
---------------------------------------------------------------------------------------
---------5p0-5p0-4p0-4p0-2p0-2p0--5-5-4----------------------
2p0-2p0---------------------------5-5-4--------------------------
----------------------------------3-3-2--------------------------

repeat this intro 4 times, I think, then something like this:

---------------------------------------------------------------------
---------------------------------------------------------------------
---------------------------------------------------------------------
--------------------------------------------------------------------- repeat about 4 times
-4---4-4-4---5--5--5-4-------4---4-4-4---5--5--5-4----------
-2---0-2-2---3--3--3-2-------2---0-2-2---3--3--3-2----------

and then there's also a part that sounds like the intro to Ozzy's Crazy Train:

------------------------------------------------
------------------------------------------------
-----------------------------------------------
------------------------------------------------
-----5---6---5--------------------------------
-3-3--3---3---3------------------------------

followed by a trademark Buckethead solo......

these tabs aren't dead on, cuz I'm going from memory of like, 5 years ago, but they are close...

I know this is pretty cryptic but I learned this song years ago, right around 2005, so I know it's not anything newer than 2005 or 2006 at the newest, if that helps... I wish I knew what album it was off of or something more to help but I want to hear the song again and I can't remember the name for the life of me...

Thanks for any help!

#3
Quote by Mudhippy2011
Welcome to Buckethead Land.


I think.



YESSSS!!!!!!!!!!!!!!!!!!!!!!!!

Eternally grateful!!