#2
A Justin Bieber song? Oh come on... -_-'

/thread
Quote by xaviergray
Asking the Pit to play this is kinda like asking the guy who makes suggestive gay jokes if he wants to have sex with a man.
#3
just strum the shit out of your guitar, im sure its basically the same thing
#5
like this:

|--------------------------------|
|-9--------7---6---5-------------|
|-9--------7---6---5-------------|
|-7--------5---4---3-------------|
|-0------------------------------|

*4*Play Four Times*4*
|--------------------------------------------------------------------|
|--------------------------------------------------------------------|
|--------------------7---6---5---------------------------------------|
|--------------------7---6---5---------------------------------------|
|-----7-----6--------5---4---3---------------------------------------|
|-0-0---0-0---0-0---------------------0-0-7-0-0-6-0-0-5-0-4-0-3-0-2-

then go:
-----2-----3-----4-----3-----2-2-----2-----3------5\4---5\4---5\4---|
|-0-1---0-1---0-1---0-1---0-1-----0-1---0-1---0-0--3\2-0-3\2-0-3\2---|

|--------------------------------------------------------------------|
|--------------------------------------------------------------------|
|-------------------------------------------------------------4------|
|-------------------------------------------------------------4------|
|-----2-----3-----4-----3-----2-2-----2-----3-----4-----3-----2------|
|-0-1---0-1---0-1---0-1---0-1-----0-1---0-1---0-1---0-1---0-1-------
#6
i didn't even hear it, i saw the lil douche and closed the window.
Quote by LesPaulHer0
"in the grand scheme of things, nobody cares"



Gear:
Dean 10K Commemorative Razorback
Ibanez RG 3EX1
BC Rich Mockingbird Evil Edge
Fender Acoustic
Marshall MG250DFX
Ibanez Weeping Demon Wah
Electro Harmonix Small Clone Full Chorus
#8
Trolls ftw.
Quote by Venice King
Beethoven ****ed Jimi Hendrix and I was born. I make my own music.