#1
Does anybody know of a good tab for the lead to this song? I'm not very good at figuring stuff out by ear so I was wondering if someone who is could post a tab for this song because its pretty sick. Thanks in advance!
Gibson Signature Les Paul
Fender Princeton 65
Dunlop Hendrix CryBaby
#2
intro:
e|--------------------------------------------------------------------------------------------------------|
B|-5^7v5---7^8~---8^10v8----10^12~---12^13v12----16^17~---17^19----17~-------|
G|---------------------------------------------------------------------------------------------------------|
D|--------------------------------------------------------------------------------------------------------|
A|--------------------------------------------------------------------------------------------------------|
E|-------------------------------------------------------------------------------------------------------|


e|--------------------------------------------------------------------------------------------------------|
B|-5^7v5---7^8~---8^10v8----10^12~---12^13v12----16^17~---17^19v17~-------|
G|-------------------------------------------------------------------------------------------------------|
D|--------------------------------------------------------------------------------------------------------|
A|--------------------------------------------------------------------------------------------------------|
E|-------------------------------------------------------------------------------------------------------|

e|--------------------------------------------------------------------------------------------------------|
B|-5^7v5---7^8~---8^10v8----10^12~---12^13v12----14^15--14~---12~---------------|
G|-------------------------------------------------------------------------------------------------------|
D|--------------------------------------------------------------------------------------------------------|
A|--------------------------------------------------------------------------------------------------------|
E|-------------------------------------------------------------------------------------------------------|

e|--0--11^--11-10-9~----------------------------------------------------------|
B|----------------------------13^--13-11-10~---10^--10-9-8~---7\--------|
G|-----------------------------------------------------------------------------------|
D|-----------------------------------------------------------------------------------|
A|-----------------------------------------------------------------------------------|
E|-----------------------------------------------------------------------------------|
#3
Thanks!
Gibson Signature Les Paul
Fender Princeton 65
Dunlop Hendrix CryBaby