#1
I hope i'am in the right section .....

Hey Guys i need help!

I watched this on Youtube: http://www.youtube.com/watch?v=9cJwLcBW3Ow

Most Chords are really easy to identify and the Pickings are not quite a problem too. BUT at min: 2:37 he plays an (in my opinion) really nice interlude but i am not able to find out the correct chords of that part. Do anyone know a nice nearly correct Tab or is able to read them from the video?

Please, i really wanna play this interlude, it rocks xD

Thanks for any kind help
#2
Looks like he's playing something like this.


e:----------------------------2--2--2--2----1---1--1--1--0--0----------
B:--0/0--0--0---0--0/0--5-5---3--3--3--3----1---1--1--1--0--0-----------
G:--1/2--2--2---2--2/4--4-4---2--2--0--0h2--2---2--2--2--2--2------------
D:--0/0--0--0---0--0/0--0-0---0--0--0--0----3---3--3--3--3--3-----------
A:--2/3--3--3---3--3/5--5-5-----------------3---3--3--3--3--3-------------
E:-----------------------------------------------------------------------


And so forth.
Last edited by RU Experienced? at Jul 22, 2010,
#3
add the strumming:

e|--0-0-0-0-0--0-0----0-0---0-0-0-0-0------0------0--------------|
B|--3-3-3-3-0--0/1----1/3---3-3-3-3-0------1------0--------------|
G|--2-2-0-2-0--0-0----0-0---2-2-0-2-0------2------2--------------|
D|--0-0-0-0-0--0/2----2/4---0-0-0-0-0------3------3--------------|
A|----------------0-0----0-0---------------------3------3---------------|
E|-------------------------------------------------1------1---------------|