#1
I was wondering if anyone could give a quick listen to a song called Lather, Rinse, Repeat by The Riot Before and tell me the chords for the song? It sounds like a super easy song but I don't know how to learn to play a song by listening to it yet.
here is the song http://www.youtube.com/watch?v=029kPZPVKxg
Any help would be appreciated.
Last edited by doe8152 at Jul 24, 2010,
#2
Could anyone please help? Its a supper easy song by the sound of it and will only take a second to figure out I believe.
#4
These are the two main riffs
e|---------------------------------------|
B|---------------------------------------|
G|-2--7-6-----------2--6-7--------7--|
D|----------4--9-2-----------4--2-----|
A|-0--5-4-----------0--4-5--------5--|
E|----------2--7-0-----------2--0------|

e|-----------|
B|-----------|
G|--------7-|
D|-4--2-----|
A|--------5--|
E|-2--0-----|

And at the end he plays this

e|---------------|
B|---------------|
G|-4--6--7--2-|
D|---------------|
A|-2--4--5--0-|
E|---------------|

Hope that helps?
Last edited by snowmotion at Jul 30, 2010,