#1
I got chords down, first part of the first solo, and majority of the second solo but I'm stuck on figuring out the rest of it. Any help would be appreciated.
#2
1: That song (and J Mascis) rules

2: I'd got most of it down but gave up, but i'll try to finish it up since you're after it. Here's as far as I got (just the first solo here, not sure how you managed with yours but here's what I got anyway).


E|-----------------------------------------------------15b----------------------|
B|--15b(18)-15~-15-15b(17)~-15-15-15-15-15-15-13-13-13-----13~-13---13-13h15p13-|
G|----------------------------------------------------------------14------------|
D|------------------------------------------------------------------------------|
A|------------------------------------------------------------------------------|
E|------------------------------------------------------------------------------| 


E|---------------------------------------------------------------------------------------------------------------------------|
B|-----------------------------10-10-10-----10-10-----10-11-11-11-11p10----10------------------------------------------------|
G|--------------------------------------12b-------12b-------------------12----12b-10----10-10----10----12b-r-p10---10-10-----|
D|-----10-12-12b-r-10-12b---12b------------------------------------------------------12-------12----12-----------12------12~~|
A|-s12-----------------------------------------------------------------------------------------------------------------------|
E|---------------------------------------------------------------------------------------------------------------------------|
Last edited by pete-c at Jul 31, 2010,
#3
Thanks man. The top part of the tab is the part that I learned already...which is exactly the same so my ears must be doing something right haha but thanks for the second part. This song rules and I usually just improvise the solo like his live version since I can't figure it out.