#3
its definitely in e flat man, mess around the scale below starting on the 7th fret 6th string (low Eb) for the intro but just keep it in the box and jam

the scale (can do the blues/pentatonic scale in e flat if it tickles your fancy)
1|-------------------------------------------------7-8-10-|
2|----------------------------------------7-8-10----------|
3|-----------------------------------7-9-------------------|
4|-------------------------7-9-10-------------------------|
5|---------------7-9-10-----------------------------------|
6|-----7-8-10---------------------------------------------|

(that's not how to play the intro or any part but those notes are basically the song or how you can just tear it up your way)


sorta intro not quite
4|-------------------------------------------------------------|
5|-------10-------7-------9-----7--7-5-7-5\2-------------|
6|--0-0-----0--0----0-0----0-------------------------------|


(that's along the lines i don't feel like doing it all but there's a draft bro oh its harmonized in 3rds also which i didn't tab out but its just harmony)

keep it jammin don't pay people to tab it out just jam it fat brotha