#1
I think this tab is right, let me know if you guys see anything wrong with it.

Mozart’s **** Bass Tab
Tuning: Drop D

intro x24

---------------------------------|
---------------------------------|
---------------------------------|
---------------------------------|
-0-0-0-0-0-0-0-0-0-0-0-0-|
---------------------------------|

chorus x4

-----------------------------------|
-----------------------------------|
-----------------------------------|
-----------------------------------|
-0-0-0-0-0-0-m0-0-0-0-0-0-|
-----------------------------------|

bridge x12

-----------------------------------|
-----------------------------------|
-----------------------------------|
-----------------------------------|
-0-0-s0-0-0-0-0-0-0-0-0-0--|
-----------------------------------|

solo x 10

-----------------------------------|
-----------------------------------|
-----------------------------------|
-----------------------------------|
-0-0-0-0-0-0-0-0-m0-0-0-0-|
-----------------------------------|

intro x24

-----------------------------------|
-----------------------------------|
-----------------------------------|
-----------------------------------|
-0-0-0-0-u0-0-0-0-0-0-0-0--|
-----------------------------------|

Chorus x2

------------------------------------|
------------------------------------|
------------------------------------|
------------------------------------|
-0-0-0-0-0-0-r0-0-0-e0-0-0--|
------------------------------------|