#1

   S  S  S  S  S    S  T  T  S  E   E   
---------------------------------------|
-------------------------------14--12--|
--------12-14-14br--L-14p12----14--12--|
--12-14---------------------14---------|
---------------------------------------|
---------------------------------------|


   E  S  S  S  S  S  S  E   S  S  
--------------------12-12--15-17-|
--------------12-15--------------|
--------12-14--------------------|
--14-----------------------------|
---------------------------------|
---------------------------------|


   T  T  S  T  T  S  S  S  S  S  S  S  S  S  
--19-17-15-17-15-12-15-12----------12-14b---|
--------------------------15-12-15----------|
--------------------------------------------|
--------------------------------------------|
--------------------------------------------|
--------------------------------------------|


http://www.youtube.com/watch?v=oQCC2gb0V-Q

at 4:13 kirks mini solo.

Tuned half step down so all frets down 1 fret if playing in standard tuning.
Schecter Omen 6FR
Line 6 POD X3 Live
Line 6 spider IV15
Yamaha F325
#2
Anyone wanna confirm it for me please?
Schecter Omen 6FR
Line 6 POD X3 Live
Line 6 spider IV15
Yamaha F325