#1
Here I was thinking this would be easy for me to play... 16th notes at 140bpm.

alternate pick

d u d u d
-------------8--13-
------8--9----------
--10----------------
---------------------
---------------------

or

Sweep

d u d d d
-------------------13-
---------------13----
------12--13--------
--15-----------------
----------------------
----------------------


I have attached some parts of the tab that I'm working on so you can see the context of this.

edit: Sound another way of playing this.

d u d u d
----------------------
----------------------
-------------------18
---------------17----
------17--18--------
-20------------------
----------------------

This one I do not have to reach so far for the last note like in the first option.
Attachments:
Children exert.gp5
Last edited by 03-13-2010 at Aug 8, 2010,