#1
yeah i know, everyone hates kesha. she sucks.
but youtube this song,
you will be shocked.
it sounds nothing like her, she made this a couple years ago.
and the guitar is really nice, and her voice is unbelievable. (yes, she actually sings)

i reallyyy need the tabs for this.
#2
ummm ii tried figuring out the cords - G, Bm, and A
iwill tryy figure out the picking
#3
G:320033
A7:x02223
G/B:x20033
Asus/Db:x4x200

pattern for intro and verse:
e|---------------------------------------------------------------------------------------------------|
B|--------3-------------------2-----------------------3-------------------------3------------------|
G|-----2----2-----2----------2---------2------------0---------0---------------0-------------0----|
D|--0-----------0---------0------0---------------0------0-----------------0-------------0-------|
A|----------------------4-------------4--------3-------------3--------0h2----------0h2----------|
E|----------------------------------------------------------------------------------------------------|


G A7 G/B Asus/Db (2)


Chorus: same intro pattern and then:
(strum)
e|--2----0----2-0----------------------------------|
B|--3----3----3-3----------------------------------|
G|--0----0----0-0----------------------------------|
D|--0----0----0-0----------------------------------| (2)
A|---------------------------------------------------|
E|---------------------------------------------------|

Bridge: (strum)

e|---------------------------------------------------------------------------|
B|---------------------------------------------------------------------------|
G|--2-----4-----6-----7--------11-----11-12-11------------------------|
D|--0-----0-----0-----0--------0-------0--0---0-------------------------|
A|--x------x-----x-----x--------x-------x---x---x-------------------------|
E|--2-----3-----5-----7--------10-----10-10-10-------------------------|

e|---------------------------------------------------------------------------|
B|---------------------------------------------------------------------------|
G|--2-----4-----6-----7--------11---12----16--14----------------------|
D|--0-----0-----0-----0--------0-----0-----0----0-----------------------|
A|--x------x-----x-----x--------x-----x-----x-----x-----------------------|
E|--2-----3-----5-----7--------10---12---15---14----------------------|


e|------------0-----0------0---------------------------------------------------|
B|------------0-----0------3---------------------------------------------------|
G|------------0-----0------0---------------------------------------------------|
D|--------4---------4------2----------------------------------------------------|
A|-----2------------2------0----------------------------------------------------|
E|--0---------------0----------------------------------------------------------|
Last edited by crmrz at Aug 20, 2010,