#1
stumbled across this and thought it was a riff in a song by cream, but I may be wrong, here's what I have so far. It follows the Pentatonic Blues scale in G...

e-----------------------------------
B-----------------------------------
G-----------------------------------
D-----------------------3/5--5-5-1--
A-----------3-4-3-----1/3--3-3-3--
E--3-3--6-----------------------------

Then this...

D--------------------
A---------------------
E--6-8-9-8-6--6--- 8/10--10-10-8

the / = Slide too...


So does anyone know this song???? I know its just one little riff but I just cant find the song that sounds like this. HELP!!!!

Also, Thanks for taking the time to read this.
www.Savetoby.com

Help Save Toby By Clicking Link Above!!!!!