#1
Hey,

Would love to see some full guitar tabs/chords/bass tabs please for any of the below already released singles by Everything Everything:

Suffragette Suffragette:
http://www.youtube.com/watch?v=WFM_kTAYVsU

Schoolin':
http://www.youtube.com/watch?v=GR9cDNqkpHg

MY KZ UR BF:
http://www.youtube.com/watch?v=Di2U1UZ9J0I


This is as far as I've got with Suffragette Suffragette guitar - just the main lead guitar part, which is pretty fun in itself:

E|------------------------------------------------------
B|------------------------------------------------------
G|------------------------------------------------------
D|----------------------------------------------9p7p6---
A|--------------------------------------------7---------
E|---9---0-0-2---0-0-4p0h4p0--4h5--0-0-0h7--0-----------



I've also been working on the bass in the second half of Schoolin' - the part which sounds like it might be on a fretless? This is for 4-string and is probably an octave too high, this is to incorporate all the ace sounding sliding going on but this could probably be tabbed more accurately (an octave lower) on a 5-string. The last bit is probably wrong - direct link to the right part of the video: http://www.youtube.com/watch?v=GR9cDNqkpHg#t=3m05s

G|--------------------------------------------------------------------
D|-------------------------12-14--12----------------------------------
A|-12--15-14-15--------14------------14------------14-----------------
E|---------------12\0-------------------15---14-15-----12-12-12\/-----

-----------------------------
-----------------------------
-14p12h14--12----------------
--------------15p14h15-------


As I said, this is as far as I've got so far - any help would be much appreciated!
Last edited by adam.dullenty at Aug 12, 2010,