#1
I heard it at work on the radio and thought it sounded familiar but i can't remember the name of the song.



Intro
e||----------------------------------------------------------------------
B||----------------------------------------------------------------------
G||--------7----9---------------7----9-------------------7----9----------
D||----------------------------------------------------------------------
A||--7--7------------7--7--7-----------------------5--5------------5--5--
E||----------------------------------------------------------------------


 
--------------------------------------------------------------------
--------------------------------------------------------------------
-----7----9-------------------7----9---------------7----9-----------
--------------------------------------------------------------------
5---------------------------------------------------------------
------------------------7--7------------7--7--7---------------------


  
----------------------------------------------
----------------------------------------------
--------7----9---------------7----9-----------
----------------------------------------------
----------------------------------------------
--8--8------------8--8--8---------------------
#2
cant stop - RHCP
ProTone Pedals: Attack Overdrive
Fractal Audio: AxeFX 2
Engl: Fireball 60
Zilla: Fatboy 2x12
Carvin: DC700
Carvin: Vader 7
Schecter: KM-7 MKii
Schecter: Banshee 8 Passive
Jackson: DK2M
#3
Looks to me like Can't Stop (I'm pretty sure that's the name) by RHCP.
Quote by Joshua Garcia
my chemical romance are a bunch of homos making love to a mic and you like that cuz your a huge gay wad. You should feel pathetic for being such a gaywad you gay mcr loving gaywad olllol.