#2
standard with capo on 1st

chords:
Am7:x02010
D:xx0232
Cadd9: x32033
Em7:022033


Intro: (strum)

e|---------------------------------------------------------------------------|
B|--0----1-3-1-0-1----1-----1------1-1-0-------------------------------|
G|--0----0-0-0-0-0----0-----0------0-0-0------------------------------|
D|--0----0-0-0-0-0----0h2--0------0-0-0------------------------------|(2)
A|--x----x--x-x-x-x----3-----3-----3-3-3-----------------------------|
E|--3----3-3-3-3-3-------------------------------------------------------|

verse: (strum)

e|-------------------------------------------|
B|--0------------1---------1---------------|
G|--0------------0---------0---------------| (4)
D|--0------------0h2------0---------------|
A|--X------------3---------3----------------|
E|--3-----------------------------------------|

Am7 D Am7 D Am7 D

Chorus:

Cadd9 D Em7-D-Cadd9 (3)

Cadd9
Last edited by crmrz at Aug 13, 2010,