#1
alright this song otherside from red hot chili peppers and this person says you'll know what i mean but apparently not cuz im clueless.
Could someone explaine to me what he means by

1st part:x3
2nd part:x1
1st part:x3
2nd part:x3


http://www.ultimate-guitar.com/tabs/r/red_hot_chili_peppers/otherside_tab.htm

take a look at the tabs please and you will see what parts im talking about.
Thanks


------------------15---------------- x3 Then...
----13----12------------------------
------------------------------------
------------------------------------ When you do this part
------------------------------------ you do it like this:
------------------------------------
1st part:x3
2nd part:x1
-----3------------------5----------- 1st part:x3
-----3------------------5----------- 2nd part:x3
-----4------------------6-----------
-----5------------------7----------- listen to the song
-----5------------------7----------- and youll know what
-----3------------------5----------- im talkin about
#3
probaböy how many times the same part repeats before the next one begins
Schecter C1 Classic
Fender Vintage -57 Ri Stratocaster
Fender Blues JR w/ 12"Cannabis Rex
Mad Professor Sky Blue OD
Wampler Ego Compressor
TC Electronics Stereo Chorus/Flanger
#4
Well I guess if you listen out for each part in the song and think about how many times they repeat, etc. you could either write your own repeats or just read through and make sure you understand it. That's the best way to surely know what you're doing.

Alternatively, if there exists a Guitar Pro/Powertab version of the song, you could download that and download the open source programme, TuxGuitar, which opens these files.
RECTUM.

Quote by papershredder
Believe it or not, DT can be overlistened to.


http://www.youtube.com/watch?v=s-DA4iggDD8


Quote by SmarterChild


Quote by tancanada
I know a girl who regularly orgasms in her sleep.


Ah, Rohypnol.