#1
I don't really know if this is where this belongs or not, but I need help identifying a chord. A friend and I are going to cover the song, and I could be wrong but I don't think any of the tabs have the opening chord right.

Get Out
#2
Sounds like an A7 to me, with one other note in it.. possibly A9.
i don't know why i feel so dry
#3
Quote by Eastwinn
Sounds like an A7 to me, with one other note in it.. possibly A9.


Yeah, I'm with Eastwinn. I think an A with a 7 too.. so either dominant like Eastwin suggested, or possibly a major 7th.

At least, I figure we are talking about the chord after that distorted hit? Because that one seems like an A too.. but too distorted and fast for me to figure out if it's anything other than a single A bass note or A5.

EDIT: It also kinda sounds vaguely familliar like a chord I know.. which is just root + fifth + ninth/second
Last edited by ShadesOfGray at Aug 19, 2010,
#4
minor dudes, not major

More specifically Am7 and then Am.

It's like this;

First chord is the big opening hit chord.


e|-0-------------
B|-8\---5--5--5\-
G|-5\---5--5--5\-
D|-7\---7--7--7\-
A|-0-------------
E|---------------



A bit of the Vocal line to aid said progression:

e|------------------------------------------------------------|--------------
B|-10--8------10---------8----8----10--------8-----8-10-------|-13--13--12---
G|------------------9------------------9------------------9---|--------------
D|------------------------------------------------------------|--------------
A|------------------------------------------------------------|--------------
E|------------------------------------------------------------|--------------
   I   can't  get   star-ted  from the part  where I left off   Yes-ter-daay!

The "Re-incarnation of Plato" Award 2009
(most intelligent)
The "Good Samaritan" Award 2009 (most helpful)

[font="Palatino Linotype
Who's Andy Timmons??
Last edited by xxdarrenxx at Aug 19, 2010,
#6
Quote by xxdarrenxx
minor dudes, not major

More specifically Am7 and then Am.

It's like this;

First chord is the big opening hit chord.


e|-0-------------
B|-8\---5--5--5\-
G|-5\---5--5--5\-
D|-7\---7--7--7\-
A|-0-------------
E|---------------



Well, we were right on it being an A something-or-other at least
But did you find that out from a tab, or could you actualy do it by ear? Because if so, I tip my hat to you

btw, do you ever go to Korsakoff or The Minds?