#1
Basically I need to find the chords for this song, it's foreign so you wont understand what it's about and stuff but thats kinda off topic ;P

Here's the song.

http://www.youtube.com/watch?v=0Epz41vBfsQ

I believe the strum pattern is

Down up mute, up up mute, up up mute. What do you think?

By the way, I found these chords but they dont really fit quite well

http://pargitaru.co.cc/index.php?page=4&tab=45
#2
Gmaj7 - Fm7 - D7 - Fm7

G#dim - G#dim - D7 - D7



d u

e|---0--|
B|x--0--|
G|x--0--|
D|x--0--|
A|x--0--|
E|------|

d du du du u du du d

e|---------0-----2------------5-----2--------2-----|
B|3-----x--0--2--2--x--4/7----7--x--2--------2-----|
G|4-----x--0--2--2--x--2/5----5--x--2--2--2--2-----|
D|4-----x--0—-2--2—-x--4/7----7--x--2--2--2--2-----|
A|x-----x--0—-4--4—-x--2/5—---5-—x--4--4--4—-4-----|
E|3-----x--0--2-----x---------------2--2--2--2-----|


du du du du u du u du

e|------------------------------------------------|
B|---5--x--5-----5--x—-3-----3--x--3-----2--3--0--|
G|7--7--x--7--7--7--x--5-----5--x--5-----2--2--0--|
D|6--6--x--6—-6--6—-x—-4-----4--x--4-----2--4--0--|
A|x-----x--x—-x--x—-x--5—----5-—x—-5-----2--2—-0--|
E|4-----x--4--4--4--x-----------------------------|

strumming pattern is above the tab lines
Last edited by libertines4ever at Aug 24, 2010,
#3
Some other guy on other forums gave me these chords although I feel that something is not right with them aswell.

First chord is an A7, then it slides up to a barred D chord at the 5th fret. Then it goes to this shape:

4th fret barred
|-(-----------|-----------|-----------|
|-(-----------|-----O-----|----------|
|-(-----------|-----------|-----------|
|-(-----------|-----------|----O-----|
|-(-----------|-----------|-----------|
|-(-----------|-----------|-----------|

and then to:
1st fret
|------------|-----------|-----------|
|------------|-----O---- |--------- |
|------------|-----O---- |-----------|
|------------|-----O-----|-----------|
|------------|------------|-----------|
|------------|-----O-----|---------- |
^ Thumb


Got anything else for me?
#4
I edited my post above

now this is the correct intro, but I really doubt I'm gonna be doing anymore sorry

I dont think you'll need looking at the strumming pattern but I put it in just in case

If you have got any questions about how to play the intro feel free to ask me here