#1
i know pretty much all of fade to black(excluding outro solo) i justneed to learn the lead for the verse any1 have any tabs or any thing would be very helpful
#2
So not the intro leads, you mean the harmonized interlude? If you cd give times or between what lyrics...
#3
the lead for the verses,

"life it seems will fade away..." and "things not what they used to be..."

james plays the main riff kirk play some sort of harmony. i can hear it, but i can figure it out by ear
#4
Quote by Metalliqua1015
the lead for the verses,

"life it seems will fade away..." and "things not what they used to be..."

james plays the main riff kirk play some sort of harmony. i can hear it, but i can figure it out by ear




Am                                   C
-----------------------------|--3------------------------|
-------------------------5---|----------------------12---|
--2-------------------5------|-----------------12--------|
-----------------------------|---------------------------|
-----------------------------|---------------------------|
-----------------------------|---------------------------|


   G                                Em
--10---------------------|---7---------------------|
-------------------------|---8---------------------|
-------------------------|---9---------------------|
-------------------------|-------------------------|
-------------------------|-------------------------|
-------------------------|-------------------------|
Schecter Omen 6FR
Line 6 POD X3 Live
Line 6 spider IV15
Yamaha F325