#1
e|--5--0--1------0---------------------
b|-------------3-----1--3------------
g|---------------------------4-------

i cant place this riff anywhere..i thought it was something bucket head played
#2
e|-0-1-3-0-1---0-----------
b|--------------3---1--3-----
g|-----------------------------
Quote by EndTheRapture51
who pays five hundred fucking dollars for a burger
#3
Quote by Banjocal
e|-0-1-3-0-1---0-----------
b|--------------3---1--3-----
g|-----------------------------


"Come as you are"?
#4
Quote by Banjocal
e|-0-1-3-0-1---0-----------
b|--------------3---1--3-----
g|-----------------------------


squeal piggy!
Come listen to some of my songs:

My Music
#6
Quote by metalmetalhead
e|--5--0--1------0---------------------
b|-------------3-----1--3------------
g|---------------------------4-------

i cant place this riff anywhere..i thought it was something bucket head played



There are so many Children of Bodom riffs that sound like that, maybe it's one of them...

for example http://www.youtube.com/watch?v=VSlTJ9YHdr0
i've got a gun in my hand but that gun won't cock
my finger's on the trigger but that trigger seems locked
i can't stop staring at the tick tock clock
and even if i could i would never give up