#1
Sup pit, how about a thread with tabs in it.

If you can play the tab, you post another one.

Oh dear god this thread will probably fail.


e------------8h10p8
B---------10---------10
G-------9----------------9
D--------------------------
A--------------------------
E-------------------------

Try this 3 string sweep, then post another tab or whatever. Im bored.
Last edited by Magicant at Aug 30, 2010,
#2
Post that in a code, otherwise people won't be able to play it.

Edit:
Low E:0--3--5----0--3--6-5----0--3--5----3--0
DeVillains!
Last edited by Ylasto at Aug 30, 2010,
#3
Quote by Ylasto
Post that in a code, otherwise people won't be able to play it.

Edit:
Low E:0--3--5----0--3--6-5----0--3--5----3--0



seen that coming xD
#5

-12-7-----7---12-7-----7---12-7-------------7-12-9-----9--12-9-----9----14-9-----9---12-9-----9-------
-----8--8---------8--8---------8-----------8------10-10-------10-10---------10-10--------10-10--------
-------9------------9-----------9---------9---------9-----------9-------------9------------9----------
---------------------------------9-------9------------------------------------------------------------
----------------------------------10-7-10-------------------------------------------------------------
------------------------------------------------------------------------------------------------------

#6
Quote by Bearded_Seth

-12-7-----7---12-7-----7---12-7-------------7-12-9-----9--12-9-----9----14-9-----9---12-9-----9-------
-----8--8---------8--8---------8-----------8------10-10-------10-10---------10-10--------10-10--------
-------9------------9-----------9---------9---------9-----------9-------------9------------9----------
---------------------------------9-------9------------------------------------------------------------
----------------------------------10-7-10-------------------------------------------------------------
------------------------------------------------------------------------------------------------------



Jason Becker FTW!
#7
Quote by Bearded_Seth

-12-7-----7---12-7-----7---12-7-------------7-12-9-----9--12-9-----9----14-9-----9---12-9-----9-------
-----8--8---------8--8---------8-----------8------10-10-------10-10---------10-10--------10-10--------
-------9------------9-----------9---------9---------9-----------9-------------9------------9----------
---------------------------------9-------9------------------------------------------------------------
----------------------------------10-7-10-------------------------------------------------------------
------------------------------------------------------------------------------------------------------



Hell yeah!


In my restless dreams...
I see that town.
Silent Hill.
You promised you'd take me there again someday.
But you never did.

Well, I'm alone there now.
In our 'special place'...
Waiting for you.

#8
Quote by Bearded_Seth

-12-7-----7---12-7-----7---12-7-------------7-12-9-----9--12-9-----9----14-9-----9---12-9-----9-------
-----8--8---------8--8---------8-----------8------10-10-------10-10---------10-10--------10-10--------
-------9------------9-----------9---------9---------9-----------9-------------9------------9----------
---------------------------------9-------9------------------------------------------------------------
----------------------------------10-7-10-------------------------------------------------------------
------------------------------------------------------------------------------------------------------




I raise you

#9
Quote by NothingRocks
I raise you



and I raise you this:

          T  T      T T      T  T                  T  T     T  T      T
  S  S S  S  S   S  S S   S  S  S   S   S   S   S  S  S  S  S  S   S  S S S
-------------------------------12h-15h-20p-15p-12----------------------------|
----------------------------13--------------------13-------------------------|
----------------------9h-12--------------------------12p-9-------------------|
-------------------10--------------------------------------10----------------|
-----------------------------------------------------------------------------|
-------3----12h-15--------------------------------------------15p-12----3----|
--1h-5---13----------------------------------------------------------13---5p-|


          T  T     T T      T  T                  T  T    T  T      T
  S  S S  S  S   S S S   S  S  S   S   S   S   S  S  S  S S  S   S  S S S
------------------------------11h-14h-19p-14p-11---------------------------|
---------------------------12--------------------12------------------------|
---------------------8h-11--------------------------11p-8------------------|
-------------------9--------------------------------------9----------------|
---------------------------------------------------------------------------|
-------2----11h-14------------------------------------------14p-11----2----|
--0h-4---12--------------------------------------------------------12---4h-|


          T  T      T  T      T  T                  T  T      T  T      T
  S  S S  S  S   S  S  S   S  S  S   S   S   S   S  S  S   S  S  S   S  S S S
--------------------------------15h-19h-24p-19p-15-----------------------------|
-----------------------------17--------------------17--------------------------|
----------------------12h-16--------------------------16p-12-------------------|
-------------------14----------------------------------------14----------------|
-------------------------------------------------------------------------------|
-------7----15h-19----------------------------------------------19p-15----7----|
--5h-8---17------------------------------------------------------------17---8p-|


          T  T      T  T      T  T                  T  T      T  T      T
  S  S S  S  S   S  S  S   S  S  S   S   S   S   S  S  S   S  S  S   S  S S S
--------------------------------15h-19h-24p-19p-15-----------------------------|
-----------------------------17--------------------17--------------------------|
----------------------12h-16--------------------------16p-12-------------------|
-------------------14----------------------------------------14----------------|
-------------------------------------------------------------------------------|
-------7----15h-19----------------------------------------------19p-15----7----|
--5h-8---17------------------------------------------------------------17---8p-|


          T  T      T T      T  T                  T  T     T  T      T
  S  S S  S  S   S  S S   S  S  S   S   S   S   S  S  S  S  S  S   S  S S S
-------------------------------12h-15h-20p-15p-12----------------------------|
----------------------------13--------------------13-------------------------|
----------------------9h-12--------------------------12p-9-------------------|
-------------------10--------------------------------------10----------------|
-----------------------------------------------------------------------------|
-------3----12h-15--------------------------------------------15p-12----3----|
--1h-5---13----------------------------------------------------------13---5p-|


          T  T     T T      T  T                  T  T    T  T      T
  S  S S  S  S   S S S   S  S  S   S   S   S   S  S  S  S S  S   S  S S S
------------------------------11h-14h-19p-14p-11---------------------------|
---------------------------12--------------------12------------------------|
---------------------8h-11--------------------------11p-8------------------|
-------------------9--------------------------------------9----------------|
---------------------------------------------------------------------------|
-------2----11h-14------------------------------------------14p-11----2----|
--0h-4---12--------------------------------------------------------12---4h-|


          T  T      T  T      T  T                  T  T      T  T      T
  S  S S  S  S   S  S  S   S  S  S   S   S   S   S  S  S   S  S  S   S  S S S
--------------------------------15h-19h-24p-19p-15-----------------------------|
-----------------------------17--------------------17--------------------------|
----------------------12h-16--------------------------16p-12-------------------|
-------------------14----------------------------------------14----------------|
-------------------------------------------------------------------------------|
-------7----15h-19----------------------------------------------19p-15----7----|
--5h-8---17------------------------------------------------------------17---8p-|
#12
Quote by Bearded_Seth
This thread makes me want to give up


I already did.
Let's not bicker and argue about who killed who...
Quote by Necrophagist777
I'm ORION, LORD OF EVIL, give me your soul and breathe in my darkness.

YOU WILL NOT ENJOY THIS......
╭∩╮( º.º )╭∩╮
#13
Play this first on D-string, constantly tapping the twelfth fret with a finger of your choice. Then play it on G-string. Repeat.

12-10-12-8--12-7-12-5-12-4-12-5-12-7-12-8-12-0-12-2-12-4-12-5-12-4-12-5-12-7-12-8



To see left hand fretting easier I've tabbed it without the constant twelve that is tapped:
10-8-7-5-4-5-7-8-0-2-4-5-4-5-7-8
Fight the evolution, play large intervals!
#14
*reported*

This belongs in the technique forum.
Quote by L2112Lif
I put a ton of my capital into SW Airlines... The next day, THE NEXT DAY these nutters fly into the WTC. What the hell? Apparently no one wanted to fly anymore, and I was like "What gives? God damnit Osama, let me win a fuggin' game!"
#15
Quote by NothingRocks

Guthrie Govan


I just youtube'd this guy and I must say
This guy is amazing!

Thanks for introducing me to him
#16
I Though this was a "Guess that riff" thread.
Oh, the disappointment.
...Up to the battlefield to where the spirits walk...
#17
Quote by Tupu
Play this first on D-string, constantly tapping the twelfth fret with a finger of your choice. Then play it on G-string. Repeat.

12-10-12-8--12-7-12-5-12-4-12-5-12-7-12-8-12-0-12-2-12-4-12-5-12-4-12-5-12-7-12-8



To see left hand fretting easier I've tabbed it without the constant twelve that is tapped:
10-8-7-5-4-5-7-8-0-2-4-5-4-5-7-8

Some Bach up in this bitch?

Quote by catalan123
I just youtube'd this guy and I must say
This guy is amazing!

Thanks for introducing me to him

He's awe inspiring. Disgustingly good.
The UG Awards exist only to instill me with existential doubt.


For me, the 60's ended that day in 1978...

Willies. Fuck the lick and fuck you too.
#18
These aren't riffs; they're licks. Huge difference.

Also, I propose that if you can't play it, you can't post it. And I doubt whoever's posting those Guthrie licks can play them, at least at full speed.
#19
Also, posting a hint of the tempo of the lick/riff would be helpful lol
#21
e|-------------------------------------------------|-------------------------------------------------| 
B|-------------0-----------------------0-----------|-------------0-----------------------0-----------| 
G|-------------0-----------------------0-----------|-------------0-----------------------0-----------| 
D|-------------------0-2p0-----------------0---2h3-|-------------------0-2p0-----------------0h2---0-| 
A|-0-000-3-0-3-------------0-000-3-0-3-------------|-0-000-3-0-3-------------0-000-3-0-3-------------| 
E|-------------------------------------------------|-------------------------------------------------|
#22
Quote by catalan123
I just youtube'd this guy and I must say
This guy is amazing!

Thanks for introducing me to him



No, problem man. You should check out the fretless guitar jam he did if you haven't already.
#24
YOU WILL LOVE EACH OTHER
YOU WILL LOVE EACH OTHER
YOU WILL LOVE EACH OTHER
YOU WILL LOVE EACH OTHER
YOU WILL LOVE EACH OTHER
YOU WILL LOVE EACH OTHER
YOU WILL LOVE EACH OTHER
//////////////////////////////////////HEALTH
Last edited by sg255 at Aug 30, 2010,
#25
-----------------------------------------------------------------------|
-----------------------------------------------------------------------|
---------7\5---5\3---3---3\2----------7\5---5\3---3---5^---------------|
--0--3/5-7\5---5\3---3---3\2-x-0--3/5-7\5---5\3---3-----5^-------------|
--0--3/5-5\3-0-3\1-0-1-0-1\0-x-0--3/5-5\3-0-3\1-0-1-5^-----------------|
--0--3/5---------------------x-0--3/5----------------------------------|


-----------------------------------------------------------------------|
-----------------------------------------------------------------------|
---------7\5---5\3---3---3\2-----------7/5---5\3---3---3---2-----------|
--0--3/5-7\5---5\3---3---3\2-x-0--3/5--7/5---5\3---3---3---2---3----0--|
--0--3/5-5\3-0-3\1-0-1-0-1\0-x-0--3/5--5/3-0-3\1-0-1-0-1---0---3----0--|
--0--3/5---------------------x-0--3/5--------------------------3----0--|
In Drop C#
Maximum Volume Yields Maximum Results
#26
Quote by sg255
(Invalid img)
Wat. "Keep both feet together"; "Insert peanuts". Lolwat.
#29
Bow real fast, slippage may occur.
SHIT, These are some br00tal shredding techniques!
#30
Quote by Plaxico1717
e|-------------------------------------------------|-------------------------------------------------| 
B|-------------0-----------------------0-----------|-------------0-----------------------0-----------|
G|-------------0-----------------------0-----------|-------------0-----------------------0-----------|
D|-------------------0-2p0-----------------0---2h3-|-------------------0-2p0-----------------0h2---0-|
A|-0-000-3-0-3-------------0-000-3-0-3-------------|-0-000-3-0-3-------------0-000-3-0-3-------------|
E|-------------------------------------------------|-------------------------------------------------|


THIS IS THE HAUNT OF ROULLETTE DARES

Was playing it literally minutes ago, so fun to go mad while playing
#31
Quote by NothingRocks
I raise you


Thats the tapping part from Fives, am I correct?
#34
Quote by DeadlyIllness
That seems slightly impossible.

I'd like to see somebody enter that into guitar pro an see what it sounds like.
#36
Current Gear:
Peavey Zodiac DE Scorpio (Bass)
Yamaha RBX-170 (Bass)
Boss ODB-3 (Overdrive Pedal)
Line 6 LowDown 150 (Amp)
#37
Quote by DeadlyIllness
That seems slightly impossible.

Clearly you don't practise enough.
The UG Awards exist only to instill me with existential doubt.


For me, the 60's ended that day in 1978...

Willies. Fuck the lick and fuck you too.