#1
http://www.youtube.com/watch?v=_u18rr5Ytc8

http://www.youtube.com/watch?v=CjOOytTeuD4 << Here is a video of a PIANO cover, might help your ears out a bit.

Alright here is the song! so far i've got these chords.

Intro seems pretty easy: F# 244322 > 686666 > 46444 > x68676 ?

and somewhere there this chord too 7x9879


Please help, this song is stuck in my head and it's driving me insane. It sounds mighty nice!!
#2
Chords:
F#:244322
Bbm7:686666
Abm7:464444
Bm7:797777
Bmaj7:7x8879
Db11:x44444
Abm9:4x4446
Bm9:7x7779
Badd9:7x9879
Dbadd9:9 x 11 10 9 11
Ebm7:x68676


intro:
e|-----------------------6-------------------------------------------------------------7-----------|
B|------2--2---------------------6----6-6----6h7/9-------4---4-4---4--6/7------7-----------|
G|------3--3--3/4/6------------6----6-6----6-------------4---4-4---4------------7------------|
D|--------------------------------6------------6-------------4-----------4------------7------------|
A|--------------------------------8---------------------------6------------------------9------------|
E|--4----------------------------6---------------------------4------------------------7-------------|


F# Bbm7 Bmaj7 (Abm7 Db11)
F# Bbm7 Abm9 Bm9
Badd9 Dbadd9 Bbm7 Ebm7 Abm7 (xx9869 - x46647)

repeat verse

Last part of second chorus:
Badd9 Dbadd9 Bbm7 Ebm7 Abm7 Db11(x46474-x46464)


Chorus:
F# Ebm7 Abm7 Db11 F# (Abm7 Db11) etc...
Last edited by crmrz at Sep 2, 2010,
#3
Thanks so much once again!!!

Alot of things are coming together, but there are a few things i didn't understand.

First i want to confrim:

Verse: Girl singing
Repeat verse is : Guy singing
Chorus Guy+ girl (1:52 of video)


-Now i'm not sure where to fit PRE-CHORUS in... (even though i can hear it somehwere...)

-In verse ,Ebm7 Abm7 (xx9869 - x46647) I'm not sure where that is

- In chorus F# Dbm7 Abm7 Db11 F# (Abm7 Db11) (Invalid img) can't seem to fit it anywhere


Thanks in advance!
#4
It's not Dbm7 but Ebm7 sorry, my bad..

this part [Ebm7 Abm7 (xx9869 - x46647)]is the last part of the 1rst verse, (when the girl is singing)
the Abm7 comes when you see the guy's hand at the mixer and the next 2 chords when the girl is in the corridor

About the pre-chorus, well, actually, it's the last part of the second verse, and I also made a mistake when I put a F#. It's supposed to be like this:

Badd9 Dbadd9 Bbm7 Ebm7 Abm7 Db11 (x46474-x46464)

Sorry about all the inconveniences, the thing is that when you want to give a quick answer this is what happens sometimes, besides I tried to make a tab in less than half and hour or so..
Last edited by crmrz at Sep 2, 2010,
#5
O! The new chords for the chorus are fitting in! lol Thanks for that!! Thanks so much for your help, I haven't been able to grab a guitar and just try it out, been busy with school.

There are still a few parts i can't seem to play out. I summarize what i know THIS time.

Intro 0:00 - 0:17
Verse1 Girl sings: 0:17 - 1:05
Verse 2 Guy sings: 1:05 - 1:52
BOTH SINGS CHORUS: 1:52- 2:41
Both sing BRIDGE? 2:50- 3:37
BOTH SINGS CHORUS: 3:37 - 4:34
Outro: 4:34- END


-For the verse, it's generally the same EXCEPT the brackets at the end you have indicated:

F# Bbm7 Bmaj7 (Abm7 Db11)
F# Bbm7 Abm9 Bm9
Badd9 Dbadd9 Bbm7 Ebm7 Abm7 (xx9869 - x46647)<< #1 (x46474-x46464) <<#2


-For Chorus, you play that twice?
F# Ebm7 Abm7 Db11 F# (Abm7 Db11)

-What about the bridge from 2:50- 3:37 ?

If you want you can add me on msn @ h o w a n g c turtle@hotmail without the space! or PM me.

I really appreciate this =) thanks
#6
well, this is the complete version, pay attention to each verse, because they're not played the same, the choruses have small differences too, though it's best if you adapt the song to your own style, same for the chords, well it's up to you...hope I'm clear this time...


Chords:
F#:244322
Bbm7:686666
Abm7:464444
Bm7:797777
Bmaj7:7x8879
Db11:x44444
Abm9:4x4446
Bm9:7x7779
Badd9:7x9879
Dbadd9:9 x 11 10 9 11
Ebm7:x68676
F#maj7:2x3324
Dmaj7: x57675


intro:
e|-----------------------6-------------------------------------------------------------7-----------|
B|------2--2---------------------6----6-6----6h7/9-------4---4-4---4--6/7------7-----------|
G|------3--3--3/4/6------------6----6-6----6-------------4---4-4---4------------7------------|
D|--------------------------------6------------6-------------4-----------4------------7------------|
A|--------------------------------8---------------------------6------------------------9------------|
E|--4----------------------------6---------------------------4------------------------7-------------|

(Verse I)

F# Bbm7 Bmaj7 (Abm7 Db11)
F# Bbm7 Abm9 Bm9
Badd9 Dbadd9 Bbm7 Ebm7 Abm7 (xx9869 - x46647)

(Verse II)

F# Bbm7 Bmaj7 (Abm7 Db11)
F# Bbm7 Bmaj7 (Db11)
B Db Bbm7 Ebm7 Abm7 Db11(x46474-x46464)


Chorus:
F# Ebm7 Abm7 Db11 F# (Abm7 Db11)
F# Ebm7 Abm7 Db11 F#

Bbm7 Bmaj7 Bm7

(Verse III)

F# Bbm7 Bmaj7 (Bm)
F# Bbm7 Bmaj7 (Dmaj7-E)
B Db Bbm7 Ebm7 Abm7 Db11 F#maj7 (Db11)

Chorus:

F# Ebm7 Abm7 Db11 F# (Abm7 Db11)
F# Ebm7 Abm7 Db11

Outro:
F#maj7 Bmaj7 F#maj7 Bm7 Bbm7 (x6567x) Abm7-Bbm7-Bmaj7 Db11 F#maj7
Last edited by crmrz at Sep 14, 2010,