#1
hey guys, i'm a newbie to the fourm but not to music and playing..

I was wondering if anyone out tehre could give me a hand on a few tabs. I'm trying to learn the following songs for my band for an up coming gig in a few months.

The songs are

Feeling Good - Muse
Mascara - Killing Heidi and
Uninvited - Alanis Morristte

If annyone can give me a hand. i would forever be greatful

Thanks
#2
the Alanis song is all in D and G,

I hear this from the piano line: D F A# A

and something along the lines of G A C A C D

hope that helps a bit
Last edited by WibbleWobble at Sep 4, 2010,
#3
Muse- Feeling good


I tabbed the organ, so it's not fit necessarily for guitar, but I hope it helps you..


intro:

e|----------------------------19-----------------------------------------------|
B|-----------------------19----------------------------------------------------|
G|----------5------17-----------------------------------------------------------|
D|----4--7---------------------------------------------------------------------|
A|--5-------------------------------------------------------------------------|
E|---------------------------------------------------------------------------|


e|-6-6-6-6-6-6-6-6-6-6-6-6-6-6-6-6-6-6-6-6-6-6-6-6-6----------|
B|-8-8-8-8-8-8-8-8-8-8-8-8-8-8-8-8-8-8-8-8-8-8-8-8-8----------|
G|-7-7-7-7-7-7-7-7-7-7-7-7-7-7-7-7-7-7-7-7-7-7-7-7-7----------|
D|---------------------------------------------------------------------------|
A|---------------------------------------------------------------------------|
E|---------------------------------------------------------------------------|

verse:

e|-6-6-6-6-6-6-6-6-6-6-6-6-6-6-6-6-6-6-6-6-6-6-6-----------|
B|-8-8-8-8-8-8-8-8-8-8-8-8-8-8-8-8-8-8-8-8-8-8-8-----------|
G|-7-7-7-7-7-7-7-7-7-7-7-7-7-7-7-7-7-7-7-7-7-7-7-----------|
D|-5---------5----------------------------------------------------------|
A|--------------8-----------8-6------------6-5------8-5-8------------|
E|------------------------------------------------------------------------|

e|-15-15-15-15-15-15-13-13-13-13-13-13-12-12-12-12-12-12-11-11-11-11-11-11--------|
B|-11-11-11-11-11-11-11-11-11-11-11-11-11-11-11-11-11-11-11-11-11-11-11-11--------|
G|-12-12-12-12-12-12-12-12-12-12-12-12-12-12-12-12-12-12-12-12-12-12-12-12--------|
D|-5--------------------5------------------------------------------------------------------------------------|
A|--------------------------8---------------------8-7--------------------7-6----------------------6--------|
E|-------------------------------------------------------------------------------------------------------------|

e|-10-10-10-10-10-10-10-10-10-10-10-6-6-6-6-6-6-6-6-5-5-5-5-5-5------------|
B|-11-11-11-11-11-11-11-11-11-11-11-8-8-8-8-8-8-8-8-8-8-8-7-7-7-------------|
G|-12-12-12-12-12-12-12-12-12-12-12-7-7-7-7-7-7-7-7-7-7-7-7-7-7------------|
D|----------------------------------------------------------------------------------------------|
A|-5--------------------5-----------------------------------------------------------------------|
E|-------------------------8------------------8-6-----------------6-5-----------------------|

e|-6-6-6-6-6-6-6-6-6-6-6-6-6-6-6-6-6-5-5-5-5-5-5-----------|
B|-8-8-8-8-8-8-8-8-8-8-8-8-8-8-8-8-8-8-8-8-7-7-7-----------|
G|-7-7-7-7-7-7-7-7-7-7-7-7-7-7-7-7-7-7-7-7-7-7-7-----------|
D|-5---------5----------------------------------------------------------|
A|--------------8-----------8-6------------6-5------------------------|
E|------------------------------------------------------------------------|

e|-6-6-6-6-6-6--8---------------------|
B|-8-8-8-8-8-8--7---------------------|
G|-7-7-7-7-7-7--7---------------------|
D|----------------------------------------|
A|------------------5---------------------|
E|-8---------8-8-------------------------|

Breakdown:

(organ)
e|-------6--7-8-7-8-7-8-7--6------6-----6-------------------------------|
B|-------8--8-8-8-8-8-8-8--8------6h8--6h8----------------------------|
G|--5-------------------------------------------------------------------------|
D|-----------------------------------------------------------------------------|
A|------------------------------7---------------------6-----------------------|
E|-----------------------------------------------------------------------------|

(bass)
G|------------------------------------------------------------------------------------------5----|
D|-5----5-------------------------8-5--5-------------------------7-8---8-5---5--------------|
A|---------8----8-6---6-5----8-----------8----8-6---6-5----9------------------6---6-------|
E|------------------------------------------------------------------------------------------------|

G|--5-----------------------------------------------------------------------|
D|-----8---8-5---8\---0-1------1-0000000----------------------------|
A|---------------------------------------------------------------------------|
E|---------------------------------------------------------------------------|

the variation during the last chorus:
e|---------------------------------------------------------------------------|
B|---------------------------------------------------------------------------|
G|---------------------10--------8-------77777777777----------------|
D|------7-------------10--------8-------77777777777----------------|
A|------7------10-9-8-----8-7-6-------55555555555----------------|
E|-7-6-5-------------------------------------------------------------------|
#4
Uninvited - Alanis Morrissette


(piano riff thru verse and chorus)

e|---------18--19---18--------------18--19--18------------------------|
B|---15-------------------------15-----------------------------------------|
G|---------------------------------------------------------------------------|
D|---------------------------------------------------------------------------|
A|---------------------------------------------------------------------------|
E|---------------------------------------------------------------------------|

(Guitar verse)
e|------------------------------------------------------------------------------|
B|---------3------------3---------3----------------3-----------3-------3-----|
G|-----2------2-----3-------2-----------------2------2----3-------2---------|
D|--0---------------------------------------0-----------------------------------| (2)
A|-------------------------------------------------------------------------------|
E|-------------------------------------------------------------------------------|

e|---------------------------------------------------------------------------|
B|----------3----------------3----------------3-----------3------3--------|
G|------3-----3---------3-------3--------2-----2-----3-----2------------|
D|---0--------------0------------------0------------------------------------|
A|---------------------------------------------------------------------------|
E|---------------------------------------------------------------------------|

(D)Like anyone would be
I am fla(Gm)ttered by your fascination (D)with me
(D)Like any hot-blooded woman
I have sim(Gm)ply wanted an object to(D)crave
But (D7)you, you're not (G)allowed
You're unin(D)vited

(this part is played basically by the piano riff)
An unfortunate ..................
(D)slight
Last edited by crmrz at Sep 4, 2010,
#6
Mascara - Killing Heidi

D Bm A D Bm

D Bm G A (2)
e|---------------------------------------------------------------------------|
B|----------3-------------------------------3----------------2--------------|
G|------2-----2-----------4-------------0-----0---------------------------|
D|---0------------------4----4-------------------------2-------------------|(2)
A|------------------2--------------------------------0----------------------|
E|----------------------------------3-----------------------------------------|
Verse:

(D)Stum(Bm)bling(G) along
(A)but you dont (D)know (Bm)where (G)you been
(A)because your (D)eyes(Bm)
(G)always (A)on your feet (D Bm G A)

Chorus:

(D)Boring and old
are the (Bm)things your (A)told
about (D)the outside world
just wearing black wont (Bm)take care of (D)that
dont (D)be stupid girl

dont be stupid

(D)down on your knees
trying (Bm)to a(A)ppease
but is (D)makeup statement
cos in not much time
your(Bm) beliefs and your (A)lies will be (D)left by the pavement

they'll be down by the (D)way Bm G D Bm G D Bm


last chords: D Bm G